Pedro The Lion - Bad Things To Such Good People Chords & Tabs

 

Bad Things To Such Good People Chords & Tabs

Pedro The Lion Chords & Tabs

Version: 1 Type: Tab 0 ratings
1 star 2 stars 3 stars 4 stars 5 stars
comments

Bad Things To Such Good People Tab

   
---------------------------------------------------------

             Bad things to such good people - Pedro the Lion
-------------------------------------------------------------------------------
Tabbed by: Kyle Murray
Email: rickyfitness@excite.com

Tuning: Standard w/ capo on 3rd

Verse/intro: Am C F Dm F Dm  (lift your middle finger up and down for every chord) Repeat

v1:
my jail shoes on
the well kept cemetary lawn
both of them weeping
their one good son now was gone
the irony to see my dad down on his knees
crying out to jesus
but lord i've always done what's right
~play chorus

V2:
when we were kids
i did my best to make them proud
it just wasn't in me
i could not fly straight to save my life


Chorus: F C G  C G Am  Dm G Am  Dm G Am

and all the while
the good lord smiled
and looked the other way
[ Tab from: http://www.guitartabs.cc/tabs/p/pedro_the_lion/bad_things_to_such_good_people_tab.html ]
Bridge:
e|---------------------------------------------------------------------------|
B|---------------------------------------------------------------------------|
G|-----------------------------3--3---3--3--3---3---3------------------------|
D|-13-13--13-13-13--12--10----13-13--13-13-13--12--10------------------------|
A|--3--3---3--3--3---3---3---------------------------------------------------|
E|---------------------------------------------------------------------------|

e|---------------------------------------------------------------------------|
B|---------------------------------------------------------------------------|
G|---------------------------------------------------------------------------|
D|-13-13--13-13-13--12--10----10-10--10-10-10---9--9---9--9--9---------------|
A|-12-12--12-12-12--12--12----11-11--11-11-11--10-10--10-10-10---------------|
E|---------------------------------------------------------------------------|
                                                                      REPEAT

their big success is now their biggest failure
their golden child has been dethroned
their reputation is now in ruin
their tower to heaven has come tumbling downRepeat


| /  slide up
| \  slide down
| h  hammer-on
| p  pull-off
| ~  vibrato
| +  harmonic
| x  Mute note
===============================================================================
Comments