Pedro Abrunhosa - Viagens Chords & Tabs

 

Viagens Chords & Tabs

Pedro Abrunhosa Chords & Tabs

Version: 1 Type: Tab 0 ratings
1 star 2 stars 3 stars 4 stars 5 stars
comments

Viagens Tab

   
Pedro Abrunhosa - Viagens

Intro - C - Dm - Bb - C


   C  Dm Bb C     C  Dm    Bb   C
e|-0--1--1--0-   -0--1---1-1--1-0-
B|-1--3--3--1-   -1--3-----3--3-1-
G|-0--2--3--0-x1 -0--2--3--3-3--0-x1
D|-2--0--3--2-   -2--0-0---3-3--2-
A|-3--0--1--3-   -3--0-----1----3-
E|-3--0--1--3-   -3--0-----1----3-

(arranje for guitar of saxophone)

intro
   C        Dm             Bb C
e|---8----8-10--8------------------------------
B|-8--8--8-------8--6-8-10-11--10-8-6-8--------
G|-----------------------------------9-5-------
D|---------------------------------------------
A|---------------------------------------------
E|---------------------------------------------
   C        Dm             Bb          C
e|---8----8-10--8------------------------------
B|-8--8--8-------8--6-8-10-11--10-8-6-----6-8^-
G|-----------------------------------9^5-9-----
D|---------------------------------------------
A|---------------------------------------------
E|---------------------------------------------

e|---------------------------------------------
B|-^6---8^6-8^6-6------------------------------
G|---9^5-------9-9-5---------------------------
D|---------------------------------------------
A|---------------------------------------------
E|---------------------------------------------
[ Tab from: http://www.guitartabs.cc/tabs/p/pedro_abrunhosa/viagens_tab.html ]
C 
Já vai alta a noite 
       Dm
vejo o negro do ceu 
   Bb
deitado na areia
      C
o teu corpo e o meu 
C
Viajo com as maos 
             Dm 
por entre as montanhas e os rios
  Bb
e sinto nos meus labios
   C 
os teus doces e frios 

chorus 
D#             G#
E voas sobre o mar, 
                      D# 
com as asas que eu te dou 
                G# 
e dizes-me a cantar
               D# 
é assim que eu sou
                             G#
Olhar para ti e ver o que eu vejo 
                                  D#  
olhar-te nos olhos com olhares de desejo
                             G#
olhar para ti e ver o que eu vejo 
                                  Fm 
olhar-te nos olhos com olhares de desejo 

Fm
Eu não tenho nada 
Bb 
mais para te dar
     C# 
esta vida são dois dias 
  G#
e um é para acordar
       Bb 
das historias de encantar
       C#                    G# C G#
das historias de encantar  

intro(C Dm Bb C)


Viagens que se perdem no tempo 
viagens sem principio nem fim 
Beijos entregues ao vento
e amor em mares de cetim 
gestos que riscam o ar 
e olhares que trazem solidao 
pedras e praias e o ceu a bailar
e os corpos que fogem do chão

chorus


tabbed by Claudio Quina
questions email-me to claudioquina@hotmail.com 
Comments