Pearl Jam - Yellow Ledbetter Chords & Tabs

 

Pearl Jam Chords & Tabs

Version: 1 Type: Tab 3 ratings
1 star 2 stars 3 stars 4 stars 5 stars
comments

Yellow Ledbetter Tab

 yellow ledbetter/pearl jam
          
          Intro                     S/slide  H/hammer  R/release
                    1st part
      |--0-------------------------7-|-----------------------------|
      |----9-h11---------------------|-----------------------------|
      |----9----------------10--9----|-----------------------------|
      |----------9---9-h11-----------|-----8---8----8----5--5------|
      |----------9---9---------------|---7-----7----7----5--5------|
      |------------------------------|-9R------9R---9R---6--6--h6R-|

                                           (play 1st part)
      --------0----------------------------------------------------|
      -------------------------------------------------------------|
      -------------------------------------------------------------|
      --5--0-------------------------------------------------------|
      --5--------12-S-14--12--12--12-------------------------------|
      --6--------12-S-14--12--14--12-------------------------------|

[ Tab from: http://www.guitartabs.cc/tabs/p/pearl_jam/yellow_ledbetter_tab.html ]
      ---------------------------------------------------0---------|
      -------------------------------------------------------------|
      -------------------------------------------------------------|
      --8----------------------------5---------5-------------------|
      --7----------------------------5-----------5---5-------------|
      --9R--9--9-S-12--12--12-S-15---6--6--7R----6---6-------------|  

                               play 1st part
      |------------------------------------------------------------
      |------------------------------------------------------------
      |------------------------------------------------------------
      |----(harmonics)---|--------------------8----8---8---8--8--8-
      |------------------|--------------------7----7---7---7--7--7-
      |--12-7-12---7-6-7-|--------------------9R---9---8---8--9R-9-


       --------------------------0---------------------------------
       ------------------------------------------------------------
       ------------------------------------------------------------
       ---6--6-----------6--6--------(harmonics)-------------------
       ---5--5-----------5--5-------|-----------|------------------
       ---5--5--5--H7R---5--5-------|---12--7---|------------------ 
Comments