Pearl Jam - Whipping Chords & Tabs

 

Whipping Chords & Tabs

Pearl Jam Chords & Tabs

Version: 2 Type: Tab 0 ratings
1 star 2 stars 3 stars 4 stars 5 stars
comments

Whipping Tab

   
Whipping
by Pearl Jam
from the Vitalogy cd
transcribed by kevin gardner
code@wam.umd.edu

intro 
--12--12-x-x-x-
---------x-x-x-
--12--12-x-x-x-
---------x-x-x-
---------x-x-x-
---------x-x-x-

verse strum thses chords

--0--3-----3--
--0--3--2--3--
--1--0--2--0--
--2--0--2--0--
--2--2--0--2--
--0--3-----3--
  E  G  A  G
[ Tab from: http://www.guitartabs.cc/tabs/p/pearl_jam/whipping_tab_ver_2.html ]
the softer part

--7----- -7----- -7----- -7----- -7-
----8--- ---8--- ---8--- ---8--- ---
------9- -----9- -----9- -----9- ---
-------- ------- ------- ------- ---
-------- ------- ------- ------- ---
-0------ ------- ------- ------- ---

mike plays this fill in the background

---- -------------
---- -------------
-12- -12-14-12----
-12- -12-14-12-14-
---- ----------14-
---- -------------
Comments