Pearl Jam - Unemployable Chords & Tabs

 

Unemployable Chords & Tabs

Pearl Jam Chords & Tabs

Version: 1 Type: Tab

Unemployable Tab

   
Tabbed by: Frank Vendrig
For questions, comments and corrections e-mail me at superfrank_91@hotmail.com

Intro

     Play 1x                Play 2x 
e||-7----------------------|-------2--------------------2-||
B||-7----------------------|-------x----------0-------3---||
G||-x----x-7-----------4-6-|-------4--------2-------4-----||
D||-8----x-7---7-7----5----|-------4------2-------4-------||
A||-8----x-5---7-7---------|-0-(0)-----0-------2---------||
E||-7----------5-5---------|------------------------------||

Verse

e||---------------------------||
B||---------------------------||
G||---------4-6-4-------------||
D||----7----------7-6-4-------||
A||----7----------------7-5-4-||
E||----5----------------------||

Chorus

   Guitar 1    Play 4x first play others 5x
e||-------------------------------||
B||-------------------------------||
G||-------------------------------||
D||-9---9-7-9---9-7-9---9---9-7-7-||
A||-9---9-7-9---9-7-9---9---9-7-7-||
E||-7---7-5-7---7-5-7---7---7-5-5-||

   Guitar 2    Play during 3rd time of chorus 1
e||-5----5-5---5-5-5---5----5-5---5-----|
B||-7----7-5---5-5-5---7----7-5---5-----|
G||---------------------------------6-4-|
D||-------------------------------------|
A||-------------------------------------|
E||-------------------------------------|

   Play this during 4th time of chorus 1
e||-5----5-5---5-5-5--------------------||
B||-7----7-5---5-5-5--------------------||
G||--------------------5/7--------------||
D||-------------------------------------||
A||-------------------------------------||
E||-------------------------------------||
[ Tab from: http://www.guitartabs.cc/tabs/p/pearl_jam/unemployable_tab.html ]
   Play this during 3rd time of chorus 2 and 3
e||-5-5-5-5-5---5-5-5-5---5-5-5-------|
B||-5h7-7-7-5---5-5-5-5h7-7-7-5-------|
G||-------------------------------6-4-|
D||-----------------------------------|
A||-----------------------------------|
E||-----------------------------------|

   Play this during 4th time of chorus 2 and 3 
e||-5-5-5-5-5-----------------------|
B||-5h7-7-7-6-----------------------|
G||-------------6-4s6-6-6-6-6-6-6-6-|
D||---------------------------------|
A||---------------------------------|
E||---------------------------------|


   Play this during last time of chorus 2
e||-5-5-5-5-5-5-5-5-5-||
B||-5h7-7-7-7-7-7-7-7-||
G||-------------------||
D||-------------------||
A||-------------------||
E||-------------------||

  Bridge (uh ho ho ho part)
e||----5---5-5-5-5-5---------|----5---5-5-5-------------|
B||----5h7-7-7-7-5-5---5-7---|----5h7-7-7-7-------------|
G||------------------------6-|----------------4---------|
D||--------------------------|----------------4---4-4---|
A||--------------------------|----------------2---4-4---|
E||--------------------------|--------------------2-2---|

e||----5-5-5-5-5---||
B||----7-7-7-5-5---||
G||----------------||
D||----------------||
A||----------------||
E||----------------||

Play this during second part of brigde 2
     3x                1x
e||-----------------|------------||
B||-----------------|-5b7--------||
G||-4h6-6-6-6-6-4---|------------||
D||---------------7-|------------||
A||-----------------|------------||
E||-----------------|------------||

Outro

    Play 4x
e||-5-----7-----|-5------7---9---||
B||-7-----7-----|-7------7---9---||
G||-------------|----------------||
D||-------------|----------------||
A||-------------|----------------||
E||-------------|----------------||