Pearl Jam - Thin Air Chords & Tabs

 

Pearl Jam Chords & Tabs

Version: 1 Type: Tab 0 ratings
1 star 2 stars 3 stars 4 stars 5 stars
comments

Thin Air Tab

#----------------------------------PLEASE NOTE--------------------------------#
#This file is the author's own work and represents their interpretation of the#
#song. You may only use this file for private study, scholarship, or research.#
#-----------------------------------------------------------------------------#
#-- File created with Instab - http://www.pconline.com/~smcarey/instab.html --#
#-----------------------------------------------------------------------------#

Author/Artist: Pearl Jam
Title: Thin Air
Album: Binaural
Transcribed by: Rick S.
Email: ricksloukji@hotmail.com

Another gem by Stoney.

-0-000--0-000--0-000----------------------------------------------------------
-0-000--1-111--0-000----------------------------------------------------------
-1-111--2-222--1-111----------------------------------------------------------
-2-222--0-000--2-222----------------------------------------------------------
-2-222--3-333--2-222----------------------------------------------------------
-0-000--0-000--0-000----------------------------------------------------------
 Intro, Verse                                                                 
[ Tab from: http://www.guitartabs.cc/tabs/p/pearl_jam/thin_air_tab.html ]
-0-0000--00--00-0-------------------------------------------------------------
-1-1111--33--22-0-------------------------------------------------------------
-2-2222--22--22-1-------------------------------------------------------------
-0-0000--00--22-2-------------------------------------------------------------
-3-3333--00--00-2-------------------------------------------------------------
-0-0000--00-----0-------------------------------------------------------------
 Chorus                                                                       

-------0-------------------------------12-------------------------------------
---0-2---2-0h2-0---------------------12---------------------------------------
-3---------------3-------2----------------------------------------------------
-------------------2---2------------------------------------------------------
---------------------4------0-------------------------------------------------
------------------------------------------------------------------------------
 Post-Chorus                                                                  

----0--3--0--0----------------------------------------------------------------
----1--3--3--2----------------------------------------------------------------
-2--2--0--2--2----------------------------------------------------------------
-3--0--0--0--2----------------------------------------------------------------
-3--3--2-----0----------------------------------------------------------------
-1--0--3----------------------------------------------------------------------
 Bridge                                                                       

Comments