Pearl Jam - Soldier Of Love Chords & Tabs

 

Soldier Of Love Chords & Tabs

Pearl Jam Chords & Tabs

Version: 1 Type: Bass Tab 0 ratings
1 star 2 stars 3 stars 4 stars 5 stars
comments

Soldier Of Love Bass Tab

Soldier of Love
Pearl Jam
Tabbed by Nick Key (nkey@ionet.net)

standard tuning.

Intro:
 
2x         
|--------------------| |-------------|
|--------------------| |-------------|
|-7-----7-6-4--------| |-7-----7-6-7-|
|---7-7-------4-4----| |---7-7-------|

verse:

Fig. 1 - 2x
|------------------------------------------------|
|---6--6-6-6----6--6-6-6-------------------------| 
|-4-----------4-----------7-----------7----------|
|---------------------------7--7-7-7----7--7-7-7-|


Pre-chorus                 fter third verse, end here^
|------------------------------------------------| |----|
|------------------------------------------------| |----|
|-4-4--4-4-4--------------7-----------7----------| |--7-|
|-------------2-2--2-2-2----7--7-7-7----7--7-7-7-| |----|
[ Tab from: http://www.guitartabs.cc/tabs/p/pearl_jam/soldier_of_love_btab.html ]
Then play Chorus:
2x -               End on this note second time^
|----------------------------------------------------------------|
|----------------------------------------------------------------| 
|-------------11-11--11-11-11--12-12--12-11-9--7-7--7-7-7--------|
|-7-7--7-7-7-----------------------------------------------------|

Play the whole thing 2 more times
On the third time, play pre-chorus twice and end on designated note.
After drum fill, play this 4x:
                                                      ^end here                        
|---6--6-6-6----6--6-6-6--------------------------| |-----|
|*-----------------------------------------------*| |-----|
|*-4-----------4-----------7-----------7---------*| |--7--|
|---------------------------7--7-7-7----7--7-7-7--| |-----|

Comments