Pearl Jam - Smile Chords & Tabs

 

Smile Chords & Tabs

Pearl Jam Chords & Tabs

Version: 1 Type: Bass Tab 0 ratings
1 star 2 stars 3 stars 4 stars 5 stars
comments

Smile Bass Tab

Song Title: Smile(corrections)
Artist: Pearl Jam
---------------------------------------------
I think version of this tab written by Julian
Suarez isn't quite right.

Normal Tuning: EAGD

Intro

A-|----------0-0-----2-2-----0-0------------
E-|--0-0------------------------------------    x2

A-|-----------0-0--00--2-2--22--0-0--00-----
E-|--0-0--00--------------------------------    x2


Verse

A-|----------0-0--0--2-2--2-----------------
E-|--0-0--0------------------5-5--5---------
[ Tab from: http://www.guitartabs.cc/tabs/p/pearl_jam/smile_btab.html ]
A-|----------0-0--0--2-2--2-----------------
E-|--0-0--0------------------5-5--5p3/(1)p0-

Repeat till chorus

Chorus
"I miss you already..."

A-|-----------3-3-3-3--2-2-2-2--3-3-3-3-----
E-|--3-3-3-3--------------------------------

A-|-----------3-3-3-3--2-2-2-2--0-0-0-0-----
E-|--3-3-3-3--------------------------------

Bridge

A-|---------------------3-3-3--2-2--2-2-----
E-|---0-0-0-0-0--0-0------------------------   x2

Outro-Same as the verse part

Submitted by :Ibrahim Tirpanci(jacopas@crosswinds.net)
Please send me any corrections or comment.
Comments