Pearl Jam - Save You Chords & Tabs

 

Pearl Jam Chords & Tabs

Version: 1 Type: Tab 0 ratings
1 star 2 stars 3 stars 4 stars 5 stars
comments

Save You Tab

   
Artist: pearl jam
Title: save you
Album: riot act
Transcribed by: rafael salazar

[ Tab from: http://www.guitartabs.cc/tabs/p/pearl_jam/save_you_tab.html ]
intro/verse:
Guitar 1:
---------------------------------|--------------------------------------------
----11-11-10---------------------|----11-11-10-10-10-10-----------------------
-9--x--x--x------9---9--9--9-----|-9-----------9--9--9------------------------
-9--8--8--7---0--10--10-10-10----|-9--8--8--7--7--7--7------------------------
-7------------0--10--10-10-10----|-7------------------------------------------
-----------------8---8--8--8-----|--------------------------------------------
                                                                              
Guitar 2:
---------------------------------|--------------------------------------------
---------------------------------|--------------------------------------------
---------------------------------|--------------------------------------------
-----------------5-5--5-5--------|----------------7-7-7-----------------------
-2---------------3-3--3-3--------|-2--------------7-7-7-----------------------
-0--0-3--5--5br3-----------------|-0--0-3-5-5br-3-5-5-5-----------------------
                                                                              
Chorus:
G1:
------------------------------------------------------------------------------
------------------------------------------------------------------------------
--7--7-7-7-7--9--9-9-9-9--12-12-12-12-----------------------------------------
--7--7-7-7-7--9--9-9-9-9--12-12-12-12--10--10-10-10---------------------------
--5--5-5-5-5--7--7-7-7-7--10-10-10-10--10--10-10-10---------------------------
---------------------------------------8---8--8--8----------------------------
                                                                              
G2:
-----------------------------------------------------|------------------------
--12--12--12--15--15--15-----------------------------|------------------------
--14b-14b-14b-17b-17b-17b----------------------------|-7--9--7--6--5----------
-----------------------------------------------------|-7--9--7--6--5----------
-----------------------------------------------------|-5--7--5--4--3----------
-----------------------------------------------------|------------------------
                                                                              
lead:
------------------------------------|-----------------------------------------
------------------------------------|------------5br---------5br---------5br--
--3-3-3-3-3--5vvv---3-3-3-3-3-5vvv--|--3-3-3-3-3-----3-3-3-3-----3-3-3-3------
------------------------------------|-----------------------------------------
------------------------------------|-----------------------------------------
------------------------------------|-----------------------------------------
                                                                              

------------------------------------------------------------------------------
-5-5-8-5-10br--5-5-8-5-10br--5vvv---------------------------------------------
------------------------------------------------------------------------------
------------------------------------------------------------------------------
------------------------------------------------------------------------------
------------------------------------------------------------------------------
                                                                              

end with intro
Comments