Pearl Jam - Porch Chords & Tabs

 

Porch Chords & Tabs

Pearl Jam Chords & Tabs

Version: 3 Type: Tab 0 ratings
1 star 2 stars 3 stars 4 stars 5 stars
comments

Porch Tab

   
#----------------------------------PLEASE NOTE--------------------------------#
#This file is the author's own work and represents their interpretation of the#
#song. You may only use this file for private study, scholarship, or research.#
#-----------------------------------------------------------------------------#
#-- File created with Instab - http://www.pconline.com/~smcarey/instab.html --#
#-----------------------------------------------------------------------------#

Author/Artist: Pearl Jam
Title: Porch
Album: Ten
Transcribed by: Evan Cowan
Email: evan@giventowail.com

< = volume swell
Solo is from Ten songbook
Lyrics in verse not lined up exactly

-|----------|---------x---------------|---------x----------------|------------|
-|---x---0--|---------x---------------|---------x-5---5-5---5-0--|------------|
-|-x-x---0--|-2---2-------5--5---0-0--|-2---2---x-5---5-5---5-0--|------------|
-|-x-x---0--|-2---2-------5------0-0--|-2---2-----5---5-5---5----|------------|
-|-x--------|-0---0-------------------|-0---0--------------------|------------|
-|---8-\-3--|-------------------------|--------------------------|------------|
 G1              What the fuck is this world running to  you didn't

-|--------------------------|-------------------------------|-----------------|
-|--------------------------|-------------------------------|-----------------|
-|-2---2--2---5--5-5---0-0--|-2----2---x--5--5--5-----5--5--|-----------------|
-|-2---2--2---5--5-5---0-0--|-2----2---x--5--5--5-----5--5--|-----------------|
-|-0---0--0-----------------|-0----0------------------------|-----------------|
-|--------------------------|-------------------------------|-----------------|
 G1  Leave a message at least I coulda learned your voice one last time

-|------------------------------|------------------------------|--------------|
-|------------------------------|------------------------------|--------------|
-|-2---2---2-5--5---5--5-5-0-0--|-2---2---2-5---5---5--5-2--0--|--------------|
-|-2---2---2-5--5---5--5-5-0-0--|-2---2---2-5---5---5--5-2--0--|--------------|
-|-0---0------------------------|-0---0------------------------|--------------|
-|------------------------------|------------------------------|--------------|
 G1   Daily minefield this could   be my time by you

-|------------------------------|------------------------------|--------------|
-|------------------------------|------------------------------|--------------|
-|------------------------------|------------------------------|--------------|
-|------------------------------|------------------------------|--------------|
-|---12-\-----------------------|-9-\--------------------------|--------------|
-|------------------------------|------------------------------|--------------|
 G2   <                           <

-|---------------------------|-----------------x-x-x--|-----------------------|
-|---------------------------|-----2--2-2---2--x-x-x--|-----------------------|
-|-2---2---2-5-5---5-2--0-0--|-2---2--2-2---2--x-x-x--|-----------------------|
-|-2---2---2-5-5---5-2--0-0--|-2---2--2-2---2---------|-----------------------|
-|-0---0---------------------|-0---0--0-0---0---------|-----------------------|
-|---------------------------|------------------------|-----------------------|
 G1    Would you hit me            Would you hit me

-|---------------------------|------------------------|-----------------------|
-|---------------------------|------------------------|-----------------------|
-|---------------------------|------------------------|-----------------------|
-|---------------------------|------------------------|-----------------------|
-|---12-\--------------------|------------------------|-----------------------|
-|---------------------------|--3---------------------|-----------------------|
 G2   <                         <

-|-3-----3----------|-5-----5----------|-6-----6--------|-5-----5------------|
-|-3---3------------|-5---5------------|-6---6----------|-5---5--------------|
-|-0----------------|-0----------------|-0--------------|-0------------------|
-|-0----------------|-0----------------|-0--------------|-0------------------|
-|-2----------------|-4----------------|-5--------------|-4------------------|
-|-3----------------|-5----------------|-6--------------|-5------------------|
 G1 Oh            oh                 oh

-|------------------|------------------|----------------|--------------------|
-|------------------|------------------|----------------|--------------------|
-|-4----4-----------|-6----0-----------|----------------|-6-----6------------|
-|-5----5---5-5-5-5-|-7--------7-7-7-7-|-8-----8---8----|-7---7-----7-7-7-7--|
-|-5----5---5-5-5-5-|-7--------7-7-7-7-|-8---8-----8----|-7---------7-7-7-7--|
-|-3----3---3-3-3-3-|-5--------5-5-5-5-|-6---------6----|-5---------5-5-5-5--|
 G2

-|-3----3-------|-5----5-------|-6----6-------|--8---8---------------------|--|
-|-3--3---------|-5--5---------|-6--6---------|--8---8---------------------|--|
-|-0------------|-0------------|-0------------|--0---0---------------------|--|
-|-0------------|-0------------|-0------------|--0---0---------------------|--|
-|-2------------|-4------------|-5------------|--7---7---------------------|--|
-|-3------------|-5------------|-6------------|--8---8---------------------|--|
 G1 Oh         oh            oh                                     Oh

-|--------------|--------------|--------------|----------------------------|--|
-|--------------|--------------|--------------|----------------------------|--|
-|--------------|-6------------|-7------------|----------------------------|--|
-|-5----5-5-5-5-|-7----7-7-7-7-|-8----8-8-8-8-|-10--10--10-10--10-10-10-10-|--|
-|-5----5-5-5-5-|-7----7-7-7-7-|-8----8-8-8-8-|-10--10--10-10--10-10-10-10-|--|
-|-3----3-3-3-3-|-5----5-5-5-5-|-6----6-6-6-6-|--8---8---8--8---8--8--8--8-|--|
 G2

-|---------------------------|-------------------------|----------------------|
-|----------x-x-x-0--0-0-----|--------x-x--------------|----------------------|
-|-2--2--2--x-x-x-0--0-0---0-|-2---2--x-x-----0-0------|----------------------|
-|-2--2--2--x-x-x-x--x-x---0-|-2---2--x-x-----x-x------|----------------------|
-|-0--0--0--------3--3-3p2-x-|-0---0------3-3-3-3--2---|----------------------|
-|-------------------------3-|-----------------------3-|----------------------|
 G1

-|----------x-x-x----x-------|--------x-x-x----x-------|----------------------|
-|-5-----5--x-x-x----x-------|-5---5--x-x-x----x-------|----------------------|
-|-6-----6--x-x-x-5--x-5p4---|-6---6--x-x-x-5--x-5p4---|----------------------|
-|-7-----7-----------------5-|-7---7-----------------5-|----------------------|
-|---------------------------|-------------------------|----------------------|
-|---------------------------|-------------------------|----------------------|
 G2

-|--------------------------|-------------------------|-----------------------|
-|--------------------------|----------0-0-0-0-0------|-----------------------|
-|--2---2---x---0-----------|-2---2----0-0-0-0-0------|-----------------------|
-|--2---2---x---x-----------|-2---2----x-x-x-x-x------|-----------------------|
-|--0---0-----3-3--3-3p2----|-0---0----3-3-3-3-3-2----|-----------------------|
-|-----------------------3--|----------------------3--|-----------------------|
 G1

-|--------x-x-x----x--------|--------x-x-x------------|-----------------------|
-|--5---5-x-x-x----x--------|-5---5--x-x-x---x--------|-----------------------|
-|--6---6-x-x-x-5--x-5p4----|-6---6--x-x-x-5-x-5p4----|-----------------------|
-|--7---7----------------5--|-7---7----------------5--|-----------------------|
-|--------------------------|-------------------------|-----------------------|
-|--------------------------|-------------------------|-----------------------|
 G2

-|-----------------------------|------------------------|--------------------|
-|----x-x----x-x---------------|------------------------|-----------------0--|
-|----x-x-2--x-x-5-5--5-5-0--0-|-2---2---5-5-5-x--------|-----2--5-5--5-5-0--|
-|--------2------5-5--5-5-0--0-|-2---2---5-5-5-x--------|-2---2--5-5--5-5----|
-|-0---------------------------|-----0------------------|-0---0--------------|
-|-----------------------------|------------------3-3-3-|--------------------|
 G1     All the bills go by and    initiatives are taken up  by the middle

-|-------------------------------|--------------------------|-----------------|
-|-------------------------------|--------------------------|-----------------|
-|-----x-x--2----5--5----5-------|-------2----5---5-5-------|-----------------|
-|-2---x-x--2----5--5----5-------|--2----2----5---5-5-------|-----------------|
-|-0--------0--------------------|--0----0------------------|-----------------|
-|--------------------------x-x--|---------------------x-x--|-----------------|
 G1 There ain't gonna be any middle anymore and the cross I'm bearin'

-|-----------------------|--------------------------|------------------------|
-|-----------------0-0---|--------------------------|----------2--2-2-2-2-2--|
-|-2-x-x-2-x-x-5-5-0-0---|--------2--x-x-x-5--5-5-4-|-----2--2-2--2-2-2-2-2--|
-|-2-x-x-2-x-x-5-5-------|--------2--x-x-x-5--5-5-4-|-2---2--2-2--2-2-2-2-2--|
-|-----------------------|-0--0-0-0-----------------|-0---0--0-0--0-0-0-0-0--|
-|---------------------3-|--------------------------|------------------------|
 G1 Home ain't indicative of my place left the porch     left the porch

-|-3----3-------|-5----5-----------|-6----6-----------|-5----5------------|---|
-|-3--3---------|-5--5-5-----------|-6--6-------------|-5--5--------------|---|
-|-0------------|-0----------------|-0----------------|-0-----------------|---|
-|-0------------|-0----------------|-0----------------|-0-----------------|---|
-|-2------------|-4----------------|-5----------------|-4-----------------|---|
-|-3------------|-5----------------|-6----------------|-5-----------------|---|
 G1 Oh         oh                 oh

-|-3------------|-5----------------|-6----------------|-5-----------------|---|
-|-3------------|-5----------------|-6----------------|-5-----------------|---|
-|-4------------|-6----------------|-7----------------|-6-----------------|---|
-|-5---5----5-5-|-7---7-7--7-7-7-7-|-8---8-8---8-8-8--|-7---7-7---7---7-7-|---|
-|-5---5----5-5-|-7---7-7--7-7-7-7-|-8---8-8---8-8-8--|-7---7-7---7---7-7-|---|
-|-3---3----3-3-|-5---5-5--5-5-5-5-|-6---6-6---6-6-6--|-5---5-5---5---5-5-|---|
 G2

-|-3----3-----------|-5----5---------|-6----6---------|--8-8-8-8---8--8--8---|
-|-3--3-------------|-5--5-----------|-6--6-----------|--8-8-8-8---8--8--8---|
-|-0----------------|-0--------------|-0--------------|--0-0-0-0---0--0--0---|
-|-0----------------|-0--------------|-0--------------|--0-0-0-0---0--0--0---|
-|-2----------------|-4--------------|-5--------------|--7-7-7-7---7--7--7---|
-|-3----------------|-5--------------|-6--------------|--8-8-8-8---8--8--8---|
 G1    Hear my name       take a good  look           This could be the day

-|-3----------------|-5--------------|-6--------------|--8-------------------|
-|-3----------------|-5--------------|-6--------------|--8-------------------|
-|-4----------------|-6--------------|-7--------------|--9-------------------|
-|-5---5-5--5-5-5-5-|-7---7-7---7--7-|-8---8-8--8-8-8-|-10--10-10--10-10-10--|
-|-5---5-5--5-5-5-5-|-7---7-7---7--7-|-8---8-8--8-8-8-|-10--10-10--10-10-10--|
-|-3---3-3--3-3-3-3-|-5---5-5---5--5-|-6---6-6--6-6-6-|--8---8--8---8--8--8--|
 G2

-|-3----3-----------|-5----5---------|-6----6---------|--8-8-8-8---8--8--8---|
-|-3--3-------------|-5--5-----------|-6--6-----------|--8-8-8-8---8--8--8---|
-|-0----------------|-0--------------|-0--------------|--0-0-0-0---0--0--0---|
-|-0----------------|-0--------------|-0--------------|--0-0-0-0---0--0--0---|
-|-2----------------|-4--------------|-5--------------|--7-7-7-7---7--7--7---|
-|-3----------------|-5--------------|-6--------------|--8-8-8-8---8--8--8---|
 G1    Hold my hand        walk beside me               I just need to say

-|-3----------------|-5--------------|-6--------------|--8-------------------|
-|-3----------------|-5--------------|-6--------------|--8-------------------|
-|-4----------------|-6--------------|-7--------------|--9-------------------|
-|-5---5-5--5-5-5-5-|-7---7-7---7--7-|-8---8-8--8-8-8-|-10--10-10--10-10-10--|
-|-5---5-5--5-5-5-5-|-7---7-7---7--7-|-8---8-8--8-8-8-|-10--10-10--10-10-10--|
-|-3---3-3--3-3-3-3-|-5---5-5---5--5-|-6---6-6--6-6-6-|--8---8--8---8--8--8--|
 G2

-|-3-----3---------|-5-----5----------|-6-----6---------|--8-------------|----|
-|-3---3-----------|-5---5------------|-6---6-----------|--8-------------|----|
-|-0---------------|-0----------------|-0---------------|--0-------------|----|
-|-0---------------|-0----------------|-0---------------|--0-------------|----|
-|-2---------------|-4----------------|-7---------------|--7-------------|----|
-|-3---------------|-5----------------|-8---------------|--8-------------|----|
 G1

-|-3---------------|-5----------------|-6---------------|--8-------------|----|
-|-3---------------|-5----------------|-6---------------|--8-------------|----|
-|-4---------------|-6----------------|-7---------------|--9-------------|----|
-|-5----5-5---5-5--|-7---7-7---7-7-7--|-8---8-8-8-8--8--|-10-------------|----|
-|-5----5-5---5-5--|-7---7-7---7-7-7--|-8---8-8-8-8--8--|-10-------------|----|
-|-3----3-3---3-3--|-5---5-5---5-5-5--|-6---6-6-6-6--6--|--8-------------|----|
 G2

-|------------|-----------------------|------------|--------------|-----------|
-|------------|-----------------------|------------|--------------|-----------|
-|------------|-----------------------|------------|--------------|-----------|
-|------------|-----------------------|------------|--------------|-----------|
-|------------|-----------------------|------------|---------x----|-----------|
-|-0----------|-----------------------|------------|---------x----|-----------|
 G1

-|------------|-----------------------|------------|--------------|-----------|
-|------------|-----------------------|------------|--------------|-----------|
-|-2b4--------|-2b4--2b4--2b4-2b4--r2-|-0----------|--------------|-----------|
-|------------|-----------------------|---2vvvvvvv-|-2vvvvvv-x/---|-----------|
-|------------|-----------------------|------------|--------------|-----------|
-|------------|-----------------------|------------|------------0-|-----------|
 G2

-|---------------|-------------|-----------|----------------|-----------------|
-|---------------|-------------|-----------|----------------|-----------------|
-|---------------|-------------|-----------|----------------|-----------------|
-|---------------|-------------|-----------|--------------x-|-----------------|
-|---------------|-------------|-----------|-------------x--|-----------------|
-|-0-------------|-------------|-----------|------------x---|-----------------|
 G1                                                     rake

-|---------------|-------------|-----------|-3--------------|-----------------|
-|-----------3---|-3-5--5vvvvv-|-5vvvvvv-5-|---5--5---5/-0--|-----------------|
-|-2/4vvvvvv---4-|-------------|-----------|----------------|-----------------|
-|---------------|-------------|-----------|----------------|-----------------|
-|---------------|-------------|-----------|----------------|-----------------|
-|---------------|-------------|-----------|----------------|-----------------|
 G2

-|---------------|---------------------|--------------|----------------------|
-|---------------|---------------------|--------------|----------------------|
-|---------------|---------------------|--------------|----------------------|
-|---------------|---------------------|--------------|----------------------|
-|---------------|-5^-------------5p0--|-2------------|-3-----------------x--|
-|-0-------------|---------------------|--------------|----------------------|
 G1                pinch harmonic

-|---------------|---------------------|--------------|----------------------|
-|-15b17---------|-15b17r15vvvvv-15h17-|-15-12vvvvvvv-|----------------------|
-|---------------|---------------------|--------------|-14b16r14p12-14vvvvv--|
-|---------------|---------------------|--------------|----------------------|
-|---------------|---------------------|--------------|----------------------|
-|---------------|---------------------|--------------|----------------------|
 G2

-|----------------------------|----------------------------------------------|
-|----------------------------|----------------------------------------------|
-|----------------------------|----------------------------------------------|
-|----------------------------|----------------------------------------------|
-|-7--------------------------|-5----------------------------------------x---|
-|----------------------------|----------------------------------------------|
 G1

-|----------12----------------|-12-------------------------------------------|
-|-------12----12-15b17vvvvvv-|---15p12-----12-12----------------------------|
-|-14b16----------------------|--------14b16-----14b16r14-12----12h14-12vvv--|
-|----------------------------|------------------------------14--------------|
-|----------------------------|----------------------------------------------|
-|----------------------------|----------------------------------------------|
 G2

-|----------------|---------------|-------------------------------------------|
-|----------------|---------------|-------------------------------------------|
-|----------------|---------------|-------------------------------------------|
-|----------------|-2-------------|-------------------------------------------|
-|-2--------------|-3-------------|-------------------------------------------|
-|----------------|---------------|-------------------------------------------|
 G1

-|----------------|---------------|-------------------------------------------|
-|----------------|---------------|-------------------------------------------|
-|----------------|---------------|-------------------------------------------|
-|-14-12vvvvv-12--|-12-14vvvvv----|-------------------------------------------|
-|----------------|---------------|-------------------------------------------|
-|----------------|---------------|-------------------------------------------|
 G2

-|--------------|-------------------|--------------|-----------------|--------|
-|-8vvv-7vvvvv--|-7h8p7-5vvvvvvv----|--------------|-----------------|--------|
-|--------------|-------------------|-7-/-9vvvvvvv-|--9--7vvvvv-7/-0-|--------|
-|--------------|-------------------|--------------|---------------0-|--------|
-|--------------|-------------------|--------------|-----------------|--------|
-|--------------|-------------------|--------------|-----------------|--------|
 G1
[ Tab from: http://www.guitartabs.cc/tabs/p/pearl_jam/porch_tab_ver_3.html ]
-|-17b19--------|-17b19---17vvvv-15-|-15-----------|-----------------|--------|
-|--------------|-------------------|----17vvvvvvv-|-17-15vvv--------|--------|
-|--------------|-------------------|--------------|-----------------|--------|
-|--------------|-------------------|--------------|-----------------|--------|
-|--------------|-------------------|--------------|-----------------|--------|
-|--------------|-------------------|--------------|-----------------|--------|
 G2

-|-------------------------|-------------------------------------------------|
-|-------------------------|-------------------------------------------------|
-|-12--11------------------|-12/14--12---------------------------------------|
-|-------------------------|-------------------------------------------------|
-|-------------------------|-------------------------------------------------|
-|-------------------------|-------------------------------------------------|
 G1

-|--------12---------------|-12----------------------------------------------|
-|------12--12-15b17vvvvvv-|---15-12-----12-12-------------------------------|
-|-14b16-------------------|--------14b16-----14b16r14-12-----12-14-12vvv----|
-|-------------------------|-----------------------------14-14---------------|
-|-------------------------|-------------------------------------------------|
-|-------------------------|-------------------------------------------------|
 G2

-|-----------------|-----------------|----------------------|-------------|---|
-|-----------------|-----------------|----------------------|-------------|---|
-|-12h14p12--------|-11----9vvvvvvv--|-2--------------------|-2-----------|---|
-|-----------------|-----------------|-2--------------------|-2-----------|---|
-|-----------------|-----------------|-0--------------------|-0-----------|---|
-|-----------------|-----------------|----------------------|-------------|---|
 G1

-|-15b17r15vvvvvvv-|-17b19r17vvvvv-0-|----------12----------|----------0--|---|
-|-----------------|-----------------|-------12----15vvvvvvv|vvvvvvvv--0--|---|
-|-----------------|-----------------|-14b16----------------|-------------|---|
-|-----------------|-----------------|----------------------|-------------|---|
-|-----------------|-----------------|----------------------|-------------|---|
-|-----------------|-----------------|----------------------|-------------|---|
 G2

-|----------------------|-----------|---------------------|------------|------|
-|-2--------------------|-2---------|-2-------------------|-2---2--2-2-|------|
-|-2--------------------|-2---------|-2-------------------|-2---2--2-2-|------|
-|-2--------------------|-2---------|-2-------------------|-2---2--2-2-|------|
-|-0--------------------|-0---------|-0-------------------|-0---0--0-0-|------|
-|----------------------|-----------|---------------------|------------|------|


-|----------12----------|--------0--|----------12---------|------------|------|
-|-------12----15vvvvvvv|vvvvvvv-0--|-------12----15vvvvvv|vvvvvvvv----|------|
-|-14b16----------------|-----------|-14b16---------------|------------|------|
-|----------------------|-----------|---------------------|------------|------|
-|----------------------|-----------|---------------------|------------|------|
-|----------------------|-----------|---------------------|------------|------|
 G2

-|------------------|--------------|-----------------|---------------------|--|
-|------------------|--------------|-----------------|---------------------|--|
-|-2--2-2-2-2-2-2-2-|-2-2-2-2--2-2-|-2-2-2-2-2-2-2-2-|-2-2-2-2-2-2-2-2-2-2-|--|
-|-2--2-2-2-2-2-2-2-|-2-2-2-2--2-2-|-2-2-2-2-2-2-2-2-|-2-2-2-2-2-2-2-2-2-2-|--|
-|-0--0-0-0-0-0-0-0-|-0-0-0-0--0-0-|-0-0-0-0-0-0-0-0-|-0-0-0-0-0-0-0-0-0-0-|--|
-|------------------|--------------|-----------------|---------------------|--|
 G1

-|------------------|--------------|-----------------|---------------------|--|
-|-15---------------|------\/-\/---|-vvvvvvvvvvvvvvvv|vvvvvvvvvvvvvvvvvvvv-|--|
-|------------------|--------------|-----------------|---------------------|--|
-|------------------|--------------|-----------------|---------------------|--|
-|------------------|--------------|-----------------|---------------------|--|
-|------------------|--------------|-----------------|---------------------|--|
 G2 let sustain         trem.bar dips  wide vibrato w/ whammy bar

-|--3---------3--3---3--3--3-|--5---------5--5---5--5--5--|-------------------|
-|--3---------3--3---3--3--3-|--5---------5--5---5--5--5--|-------------------|
-|--0---------0--0---0--0--0-|--0---------0--0---0--0--0--|-------------------|
-|--0---------0--0---0--0--0-|--0---------0--0---0--0--0--|-------------------|
-|--2---------2--2---2--2--2-|--4---------4--4---4--4--4--|-------------------|
-|--3---------3--3---3--3--3-|--5---------5--5---5--5--5--|-------------------|
 G1          Hear  my  name                 take  a  good

-|---------------------------|----------------------------|-------------------|
-|-12--12-12-12-13--12----12-|-14--14-14-14-15--14--------|-------------------|
-|-12--12-12-12--------12-12-|-14--14-14-14--------14-14--|-------------------|
-|-12--12-12-12-----------12-|-14--14-14-14-----------14--|-------------------|
-|-10--10-10-10--------------|-12--12-12-12---------------|-------------------|
-|---------------------------|----------------------------|-------------------|
 G2

-|--6---6--6---6--6--6-|--8--8--8---8-8-8-|--3-----3--3---3--3--3--|----------|
-|--6---6--6---6--6--6-|--8--8--8---8-8-8-|--3-----3--3---3--3--3--|----------|
-|--0---0--0---0--0--0-|--0--0--0---0-0-0-|--0-----0--0---0--0--0--|----------|
-|--0---0--0---0--0--0-|--0--0--0---0-0-0-|--0-----0--0---0--0--0--|----------|
-|--5---5--5---5--5--5-|--7--7--7---7-7-7-|--2-----2--2---2--2--2--|----------|
-|--6---6--6---6--6--6-|--8--8--8---8-8-8-|--3-----3--3---3--3--3--|----------|
 G1 Look                 This could be the day   hold   my   hand

-|---------------------|------------------|------------------------|----------|
-|-15--15-16--15-------|-17-17---17\------|-12-12-12-13--12----12--|----------|
-|-15--15--------15-15-|-17-17---17\------|-12-12-12--------12-12--|----------|
-|-15--15--------15-15-|-17-17---17\------|-12-12-12-----------12--|----------|
-|-13--13--------------|-15-15---15\------|-10-10-10---------------|----------|
-|---------------------|------------------|------------------------|----------|
 G2

-|--5-----5--5---5--5--5-|--6-----6--6--6-6-6-|--8--8--8--8--8--8--8--8--|----|
-|--5-----5--5---5--5--5-|--6-----6--6--6-6-6-|--8--8--8--8--8--8--8--8--|----|
-|--0-----0--0---0--0--0-|--0-----0--0--0-0-0-|--0--0--0--0--0--0--0--0--|----|
-|--0-----0--0---0--0--0-|--0-----0--0--0-0-0-|--0--0--0--0--0--0--0--0--|----|
-|--4-----4--4---4--4--4-|--5-----5--5--5-5-5-|--7--7--7--7--7--7--7--7--|----|
-|--5-----5--5---5--5--5-|--6-----6--6--6-6-6-|--8--8--8--8--8--8--8--8--|----|
 G1              Lie  be - side   me            I  just   need    to say

-|-----------------------|--------------------|--------------------------|----|
-|-14-14-14-15--14-------|-15-15-15-16--15----|-17-17-17-17-17-17-17-17\-|----|
-|-14-14-14--------14-14-|-15-15-15--------15-|-17-17-17-17-17-17-17-17\-|----|
-|-14-14-14-----------14-|-15-15-15-----------|-17-17-17-17-17-17-17-17\-|----|
-|-12-12-12--------------|-13-13-13-----------|-15-15-15-15-15-15-15-15\-|----|
-|-----------------------|--------------------|--------------------------|----|
 G2

-|--3-----3-----3----3------3--3--3-|--5-----5-----5-----5-----5---5--5-|-----|
-|--3-----3-----3----3------3--3--3-|--5-----5-----5-----5-----5---5--5-|-----|
-|--0-----0-----0----0------0--0--0-|--0-----0-----0-----0-----0---0--0-|-----|
-|--0-----0-----0----0------0--0--0-|--0-----0-----0-----0-----0---0--0-|-----|
-|--2-----2-----2----2------2--2--2-|--4-----4-----4-----4-----4---4--4-|-----|
-|--3-----3-----3----3------3--3--3-|--5-----5-----5-----5-----5---5--5-|-----|
 G1            I could not take                      a just one day

-|----------------------------------|-----------------------------------|-----|
-|-------------------13p12-------12-|----------------15p14--------14----|-----|
-|-------------------------12-------|----------------------14--------14-|-----|
-|-12-12-12-12-12-12----------12----|-14-14-14-14-14----------14--------|-----|
-|----------------------------------|-----------------------------------|-----|
-|----------------------------------|-----------------------------------|-----|
 G2

-|--6-----6-----6-----6-----6--6--6-|--8----8----8---8----8----8---8----8-|---|
-|--6-----6-----6-----6-----6--6--6-|--8----8----8---8----8----8---8----8-|---|
-|--0-----0-----0-----0-----0--0--0-|--0----0----0---0----0----0---0----0-|---|
-|--0-----0-----0-----0-----0--0--0-|--0----0----0---0----0----0---0----0-|---|
-|--5-----5-----5-----5-----5--5--5-|--7----7----7---7----7----7---7----7-|---|
-|--6-----6-----6-----6-----6--6--6-|--8----8----8---8----8----8---8----8-|---|
 G1                I know when I       would    not       ev  -  er touch

-|----------------------------------|-------------------------------------|---|
-|-------------------16p15-------15-|-18p17--20p17--18p17--20p17--18p17---|---|
-|-------------------------15-------|------17-----17-----17-----17-----17-|---|
-|-15-15-15-15-15-15----------15----|-------------------------------------|---|
-|----------------------------------|-------------------------------------|---|
-|----------------------------------|-------------------------------------|---|
 G2

-|--3-----3-----3----3------3--3--3-|--5-----5-----5-----5-----5---5--5-|-----|
-|--3-----3-----3----3------3--3--3-|--5-----5-----5-----5-----5---5--5-|-----|
-|--0-----0-----0----0------0--0--0-|--0-----0-----0-----0-----0---0--0-|-----|
-|--0-----0-----0----0------0--0--0-|--0-----0-----0-----0-----0---0--0-|-----|
-|--2-----2-----2----2------2--2--2-|--4-----4-----4-----4-----4---4--4-|-----|
-|--3-----3-----3----3------3--3--3-|--5-----5-----5-----5-----5---5--5-|-----|
 G1    You        hold      you         feel    you     in   my

-|----------------------------------|-----------------------------------|-----|
-|-------------------13p12-------12-|----------------15p14--------14----|-----|
-|-------------------------12-------|----------------------14--------14-|-----|
-|-12-12-12-12-12-12----------12----|-14-14-14-14-14----------14--------|-----|
-|----------------------------------|-----------------------------------|-----|
-|----------------------------------|-----------------------------------|-----|
 G2

-|--6-----6-----6-----6-----6--6--6-|--8----8----8---8----8----8---8----8-|---|
-|--6-----6-----6-----6-----6--6--6-|--8----8----8---8----8----8---8----8-|---|
-|--0-----0-----0-----0-----0--0--0-|--0----0----0---0----0----0---0----0-|---|
-|--0-----0-----0-----0-----0--0--0-|--0----0----0---0----0----0---0----0-|---|
-|--5-----5-----5-----5-----5--5--5-|--7----7----7---7----7----7---7----7-|---|
-|--6-----6-----6-----6-----6--6--6-|--8----8----8---8----8----8---8----8-|---|
 G1 Arms                               nev - er  a - gain

-|----------------------------------|-------------------------------------|---|
-|-------------------16p15-------15-|-18p17--20p17--18p17--20p17--18p17---|---|
-|-------------------------15-------|------17-----17-----17-----17-----17-|---|
-|-15-15-15-15-15-15----------15----|-------------------------------------|---|
-|----------------------------------|-------------------------------------|---|
-|----------------------------------|-------------------------------------|---|
 G2

-|--3-----3-----3----3------3--3--3-|--5-----5-----5-----5-----5---5--5-|-----|
-|--3-----3-----3----3------3--3--3-|--5-----5-----5-----5-----5---5--5-|-----|
-|--0-----0-----0----0------0--0--0-|--0-----0-----0-----0-----0---0--0-|-----|
-|--0-----0-----0----0------0--0--0-|--0-----0-----0-----0-----0---0--0-|-----|
-|--2-----2-----2----2------2--2--2-|--4-----4-----4-----4-----4---4--4-|-----|
-|--3-----3-----3----3------3--3--3-|--5-----5-----5-----5-----5---5--5-|-----|
 G1                 Yeah                             yeah

-|----------------------------------|-----------------------------------|-----|
-|-------------------13p12-------12-|----------------15p14--------14----|-----|
-|-------------------------12-------|----------------------14--------14-|-----|
-|-12-12-12-12-12-12----------12----|-14-14-14-14-14----------14--------|-----|
-|----------------------------------|-----------------------------------|-----|
-|----------------------------------|-----------------------------------|-----|
 G2

-|--6-----6-----6-----6-----6--6--6-|--8----8----8---8----8----8---8----8-|---|
-|--6-----6-----6-----6-----6--6--6-|--8----8----8---8----8----8---8----8-|---|
-|--0-----0-----0-----0-----0--0--0-|--0----0----0---0----0----0---0----0-|---|
-|--0-----0-----0-----0-----0--0--0-|--0----0----0---0----0----0---0----0-|---|
-|--5-----5-----5-----5-----5--5--5-|--7----7----7---7----7----7---7----7-|---|
-|--6-----6-----6-----6-----6--6--6-|--8----8----8---8----8----8---8----8-|---|
 G1                 Yeah

-|----------------------------------|-------------------------------------|---|
-|-------------------16p15-------15-|-18p17--20p17--18p17--20p17--18p17---|---|
-|-------------------------15-------|------17-----17-----17-----17-----17-|---|
-|-15-15-15-15-15-15----------15----|-------------------------------------|---|
-|----------------------------------|-------------------------------------|---|
-|----------------------------------|-------------------------------------|---|
 G2

-|--3-----3-----3----3------3--3--3-|--5-----5-----5-----5-----5---5--5-|-----|
-|--3-----3-----3----3------3--3--3-|--5-----5-----5-----5-----5---5--5-|-----|
-|--0-----0-----0----0------0--0--0-|--0-----0-----0-----0-----0---0--0-|-----|
-|--0-----0-----0----0------0--0--0-|--0-----0-----0-----0-----0---0--0-|-----|
-|--2-----2-----2----2------2--2--2-|--4-----4-----4-----4-----4---4--4-|-----|
-|--3-----3-----3----3------3--3--3-|--5-----5-----5-----5-----5---5--5-|-----|
 G1                  Yeah                            yeah

-|----------------------------------|-----------------------------------|-----|
-|-------------------13p12-------12-|----------------15p14--------14----|-----|
-|-------------------------12-------|----------------------14--------14-|-----|
-|-12-12-12-12-12-12----------12----|-14-14-14-14-14----------14--------|-----|
-|----------------------------------|-----------------------------------|-----|
-|----------------------------------|-----------------------------------|-----|
 G2

-|--6-----6-----6-----6-----6--6--6-|--8----8----8---8----8----8---8----8-|---|
-|--6-----6-----6-----6-----6--6--6-|--8----8----8---8----8----8---8----8-|---|
-|--0-----0-----0-----0-----0--0--0-|--0----0----0---0----0----0---0----0-|---|
-|--0-----0-----0-----0-----0--0--0-|--0----0----0---0----0----0---0----0-|---|
-|--5-----5-----5-----5-----5--5--5-|--7----7----7---7----7----7---7----7-|---|
-|--6-----6-----6-----6-----6--6--6-|--8----8----8---8----8----8---8----8-|---|
 G1                  Yeah

-|----------------------------------|-------------------------------------|---|
-|-------------------16p15-------15-|-18p17--20p17--18p17--20p17--18p17---|---|
-|-------------------------15-------|------17-----17-----17-----17-----17-|---|
-|-15-15-15-15-15-15----------15----|-------------------------------------|---|
-|----------------------------------|-------------------------------------|---|
-|----------------------------------|-------------------------------------|---|
 G2

-|--3--3--3--3---3--3--|--5-----5-----5--5---5--5-|--6--6--6--6---6---6--|----|
-|--3--3--3--3---3--3--|--5-----5-----5--5---5--5-|--6--6--6--6---6---6--|----|
-|--0--0--0--0---0--0--|--0-----0-----0--0---0--0-|--0--0--0--0---0---0--|----|
-|--0--0--0--0---0--0--|--0-----0-----0--0---0--0-|--0--0--0--0---0---0--|----|
-|--2--2--2--2---2--2--|--4-----4-----4--4---4--4-|--5--5--5--5---5---5--|----|
-|--3--3--3--3---3--3--|--5-----5-----5--5---5--5-|--6--6--6--6---6---6--|----|
 G1         Yeah                       yeah                  yeah

-|---------------------|--------------------------|----------------------|----|
-|-12-12-12-13--12-----|-14-14-14-14-14-15---14---|-15-15-15-16--15--15--|----|
-|-12-12-12-12--12-12--|-14-14-14-14-14-14---14---|-15-15-15-15--15--15--|----|
-|-12-12-12-12--12-12--|-14-14-14-14-14-14---14---|-15-15-15-15--15--15--|----|
-|-10-10-10-10---------|-12-12-12-12-12-12---12---|-13-13-13-13--13--13--|----|
-|---------------------|--------------------------|----------------------|----|
 G2

-|--8-----8-----8---8--8-----8-----8--8---|-----------------------------------|
-|--8-----8-----8---8--8-----8-----8--8---|-----------------------------------|
-|--0-----0-----0---0--0-----0-----0--0---|-----------------------------------|
-|--0-----0-----0---0--0-----0-----0--0---|-----------------------------------|
-|--7-----7-----7---7--7-----7-----7--7---|-----------------------------------|
-|--8-----8-----8---8--8-----8-----8--8---|-----------------------------------|
 G1

-|----------------------------------------|-----------------------------------|
-|-17-17-17-17-17--17-17-17-17-17-17-17\--|-----------------------------------|
-|-17-17-17-17-17--17-17-17-17-17-17-17\--|-----------------------------------|
-|-17-17-17-17-17--17-17-17-17-17-17-17\--|-----------------------------------|
-|-15-15-15-15-15--15-15-15-15-15-15-15\--|-----------------------------------|
-|----------------------------------------|-----------------------------------|
 G2

-|--3--3--3--3---3--3--|--5-----5-----5--5---5--5-|--6--6--6--6----6----|-----|
-|--3--3--3--3---3--3--|--5-----5-----5--5---5--5-|--6--6--6--6----6----|-----|
-|--0--0--0--0---0--0--|--0-----0-----0--0---0--0-|--0--0--0--0----0----|-----|
-|--0--0--0--0---0--0--|--0-----0-----0--0---0--0-|--0--0--0--0----0----|-----|
-|--2--2--2--2---2--2--|--4-----4-----4--4---4--4-|--5--5--5--5----5----|-----|
-|--3--3--3--3---3--3--|--5-----5-----5--5---5--5-|--6--6--6--6----6----|-----|
 G1         Yeah                        yeah                yeah

-|---------------------|--------------------------|---------------------|-----|
-|-12-12-12-13--12-----|-14-14-14-14-14-15---14---|-15-15-15-16---15----|-----|
-|-12-12-12-12--12-12--|-14-14-14-14-14-14---14---|-15-15-15-15---15----|-----|
-|-12-12-12-12--12-12--|-14-14-14-14-14-14---14---|-15-15-15-15---15----|-----|
-|-10-10-10-10---------|-12-12-12-12-12-12---12---|-13-13-13-13---13----|-----|
-|---------------------|--------------------------|---------------------|-----|
 G2

-|--8---------------|-8-------------|--------------||-------------------------|
-|--8---------------|-8-------------|--------------||-------------------------|
-|--0---------------|-0-------------|--------------||-------------------------|
-|--0---------------|-0-------------|-2h5----------||-------------------------|
-|--7---------------|-7-------------|--------------||-------------------------|
-|--8---------------|-8-------------|-0------------||-------------------------|
 G1

-|------------------|---------------|--------------||-------------------------|
-|-17---------------|-------------\-|--------------||-------------------------|
-|-17---------------|-------------\-|--------------||-------------------------|
-|-17---------------|-------------\-|--------------||-------------------------|
-|-15---------------|-------------\-|--------------||-------------------------|
-|------------------|---------------|--------------||-------------------------|
 G2
Comments