Pearl Jam - Parting Ways Chords & Tabs

 

Parting Ways Chords & Tabs

Pearl Jam Chords & Tabs

Version: 1 Type: Tab 0 ratings
1 star 2 stars 3 stars 4 stars 5 stars
comments

Parting Ways Tab

#----------------------------------PLEASE NOTE--------------------------------#
#This file is the author's own work and represents their interpretation of the#
#song. You may only use this file for private study, scholarship, or research.#
#-----------------------------------------------------------------------------#
#-- File created with Instab - http://www.pconline.com/~smcarey/instab.html --#
#-----------------------------------------------------------------------------#

Author/Artist: Pearl Jam
Title: Parting Ways
Album: Binaural
Transcribed by: Rick S.
Email: ricksloukji@hotmail.com

Great closer.
[ Tab from: http://www.guitartabs.cc/tabs/p/pearl_jam/parting_ways_tab.html ]
------------------------------------------------------------------------------
----------------------------------2--0-2-3-2-0---0-2--------------------------
-1--0-1-2-1-0-1-0-1-4-4-1-2-1-----2------------2-----2------------------------
-2----------------------------2---2--------------------2----------------------
-2------------------------------2---------------------------------------------
-0--------------------------------------------------------------------------2-
 Verse                                                                        

------------------------------------------------------------------------------
------------------------------------------------------------------------------
------------------------------------------------------------------------------
---4-444-4/555-5/7-77---------------------------------------------------------
-4-4-444-4/555-5/7-77---------------------------------------------------------
-2---222-2/333-3/5-55---------------------------------------------------------
 Chorus                                                                       

------------------------------------------------------------------------------
--------3---------2/3\2-p0----------------------------------------------------
----------4-------------------------------------------------------------------
-2----4---------2-------------------------------------------------------------
-2--2---------0---------------------------------------------------------------
-0----------------------------------------------------------------------------
 Outro. p Indicates a pull off.                                               

Comments