Pearl Jam - Of The Girl Chords & Tabs

 

Of The Girl Chords & Tabs

Pearl Jam Chords & Tabs

Version: 1 Type: Tab 0 ratings
1 star 2 stars 3 stars 4 stars 5 stars
comments

Of The Girl Tab

#----------------------------------PLEASE NOTE--------------------------------#
#This file is the author's own work and represents their interpretation of the#
#song. You may only use this file for private study, scholarship, or research.#
#-----------------------------------------------------------------------------#
#-- File created with Instab - http://www.pconline.com/~smcarey/instab.html --#
#-----------------------------------------------------------------------------#

Author/Artist: Pearl Jam
Title: Of The Girl
Album: Binaural
Transcribed by: Rick S.
Email: ricksloukji@hotmail.com

There are just a few rythm guitar parts in this beutiful song.
[ Tab from: http://www.guitartabs.cc/tabs/p/pearl_jam/of_the_girl_tab.html ]
------------------------------------------------------------------------------
------------------------------------------------------------------------------
---2---4---5---2--------------------------------------------------------------
-0---0---0---0----------------------------------------------------------------
------------------------------------------------------------------------------
------------------------------------------------------------------------------
 etc...                                                                       

------------------------------------------------------------------------------
-----------------------------------5------------------------------------------
---2---2-2-------2-2-------2-2-------5-4-5------------------------------------
-0---0-----5-3-------5-3-------5-3--------------------------------------------
---------------5---------5----------------------------------------------------
------------------------------------------------------------------------------
 just before the chorus                                                       

-1--0-------------------------------------------------------------------------
-1--1-------------------------------------------------------------------------
-2--2-------------------------------------------------------------------------
-3--2-------------------------------------------------------------------------
-0--0-------------------------------------------------------------------------
------------------------------------------------------------------------------
 play arpeggios on these chords for the chorus                                

Comments