Pearl Jam - Man Of The Hour Chords & Tabs

 

Man Of The Hour Chords & Tabs

Pearl Jam Chords & Tabs

Version: 1 Type: Tab 0 ratings
1 star 2 stars 3 stars 4 stars 5 stars
comments

Man Of The Hour Tab

   
##################################################################################
# This file is the author's own work and represents their interpretation of the  #
# song. You may only use this file for private study, scholarship, or research.  #
##################################################################################

"Man of the Hour"
By Pearl Jam (Eddie Vedder)
Album: Big Fish Motion Picture Soundtrack

Tabbed by Jeremy Francis 
May 1, 2004

A Great Song from a Great Movie! I learned this song completely by ear and this is my first tab/chord writing, so please bare with my mistakes!

INTRO/VERSES (may vary): 

(picked; strum chords as needed)

     C               G           C           G 

e:-------------------3--3-0-----------------------------
B:---1-1--3--1-(3-0)-3-------3---1-1--3--3-1-3----------
G:---0---------------0-----------0-----------0----------
D:---2---------------0-----------2-----------0----------
A:---3---------------2-----------3-----------2----------
E:-------------------3-----------------------3----------


     C               G           am          em7

e:-------------------3--3-0-----------------------0-----
B:---1-1--3--1-(3-0)-3-------3---1-1--0--1---3------3---
G:---0---------------0-----------2-----------0--------0-
D:---2---------------0-----------2-----------0----------
A:---3---------------2-----------0-----------2----------
E:-------------------3-----------------------3----------


     am         G
[ Tab from: http://www.guitartabs.cc/tabs/p/pearl_jam/man_of_the_hour_tab.html ]
e:--------------3------(3-------------(3--------3-------|
B:---1-1--------3----------3-----3)-------3-------3-----|
G:---2----2-----0-------------0--------------0------0)--|
D:---2-------2--0---------------------------------------|
A:---0----------2---------------------------------------|
E:--------------3---------------------------------------|
(End of Intro; verse continues...)


     dm         G(7)       am         D7 

e:---1--0-3--0-----1-0--1--0----3--0--2---------------
B:---3----------0----------1--3-------1--(0--1)-------
G:---2---------(0)---------2----------2---------------
D:-------------(0)---------2----------0---------------
A:-------------(2)---------0----------0---------------
E:-------------(3)--------------------2---------------

CHORUS:

     F                G7 

e:---1-0-1------------1-0-1-----------------|
B:---1-----0--0-1--3--0-----0--0--1--3------|
G:---2----------------0---------------------|
D:---3----------------0---------------------|
A:---3----------------2---------------------|
E:---1----------------3---------------------|(To intro/bridge)

BRIDGE chords:

(Lead-in)C


That's it! Sorry I didn't get too elaborate on the Bridge (it's somewhat indistinct). The last chorus is played twice due to the extra phrases in the singing. After playing through the intro the last time, finish it off with a simple open G chord. 

When playing the Chorus and the second half of the verses, try using your left thumb to "stop" the E string on the F and D7 chords (It'll be easier for you to play the top string melodies with less disruption!)

Have fun and good luck with your gig!
       
Comments