Pearl Jam - Leaving Here Chords & Tabs

 

Leaving Here Chords & Tabs

Pearl Jam Chords & Tabs

Version: 1 Type: Bass Tab 0 ratings
1 star 2 stars 3 stars 4 stars 5 stars
comments

Leaving Here Bass Tab

Leaving Here
Pearl Jam / The High Numbers
Tabbed by Nick Key (nkey@ionet.net)

Intro: Guitar

Come in with:

G -----------|
D -----------|
A ---4--2----|
E ---------4-|

Chorus:

2x
---------------------------------------------------------------|
---------------------------------------------------------------|
-4-4-4--9--9-9-9--4-4-4--9--9-9-9--4-4-4--9--9-9-9--4--4--4--4-|
---------------------------------------------------------------|


Verse:

Hey fellas have you heard the news?
[ Tab from: http://www.guitartabs.cc/tabs/p/pearl_jam/leaving_here_btab.html ]
  3x   (Oh yeah)
G ----------------------------------------
D ----------------------------------------
A ---4-4-4--7-7-7--9-9-9---4--------------
E ----------------------------------------

G -------------------------------|
D -------------------------------|
A ---4-4-4--7-7-7--9-9-9-4-2-----|
E ---------------------------4---|

Then to chorus

Then verse

Then chorus

Play this 1x
G ------------
D ------------
A ---4-2---4--
E -------4----

Play verse for solos

Then chorus

verse

chorus (notice a pattern)

Outro:
  5x
G ------------
D ------------
A ---4-2---4--
E -------4----

Then:

G -------------
D ---------11--
A -4-7-9-4-----
E -------------

Comments