Pearl Jam - Insignificance Chords & Tabs

 

Insignificance Chords & Tabs

Pearl Jam Chords & Tabs

Version: 2 Type: Tab 0 ratings
1 star 2 stars 3 stars 4 stars 5 stars
comments

Insignificance Tab

#----------------------------------PLEASE NOTE---------------------------------#
#This file is the author's own work and represents their interpretation of the #
#song. You may only use this file for private study, scholarship, or research. #
#------------------------------------------------------------------------------#
Author/Artist: Pearl Jam
Title: Insignificance
Album: Binaural
Transcribed by: Rick S.
Email: ricksloukjI@hotmail.com

Rock'n tune. Even better live. The reworked version from when they opened for The Who (9/2002) reawakened my love for this song.

------------------------------------------------------------------------------
------------------------------------------------------------------------------
-9-9-9-9-9-9-9999999----------------------------------------------------------
-7-7-7-7-7-7-7777777----------------------------------------------------------
-----9-9-7-7-7777777----------------------------------------------------------
-------------8888888----------------------------------------------------------
 Play twice then play :                                                       

------------------------------------------------------------------------------
------------------------------------------------------------------------------
------------------------------------------------------------------------------
-9----------------------------------------------------------------------------
-7----------------------------------------------------------------------------
------------------------------------------------------------------------------
 Let ring                                                                     

------------------------------------------------------------------------------
------------------------------------------------------------------------------
-----6--6-----0-----0-----0---------------------------------------------------
------------0-----0-----0-----------------------------------------------------
----------5-----6-----7-------------------------------------------------------
-5-5--5--5--------------------------------------------------------------------
 Verse                                                                        

------------------------------------------------------------------------------
------------------------------------------------------------------------------
------------------------------------------------------------------------------
----99----99----9-9999999999999999----99----99----9-999999999999999-----------
------------------7777777777777777------------------777777777777777-----------
-88----88----88--------------------88----88----88-----------------------------
                                                                              

------------------------------------------------------------------------------
------------------------------------------------------------------------------
------------------------------------------------------------------------------
----99----99----9-999999999999999999999999999999----99----99----9-------------
------------------777777777777777788888888888888------------------------------
-88----88----88----------------------------------88----88----88---------------
                                                                              
[ Tab from: http://www.guitartabs.cc/tabs/p/pearl_jam/insignificance_tab_ver_2.html ]
------------------------------------------------------------------------------
------------------------------------------------------------------------------
------------------------------------------------------------------------------
-999999999999999--------------------------------------------------------------
-888888888888888--------------------------------------------------------------
------------------------------------------------------------------------------
 Pre-Chorus. For the Chorus, just play the Intro.                             

------------------------------------------------------------------------------
------------------------------------------------------------------------------
-16-16-16--14-16-16/17-17-17-17-17--16-14-16-14-14-14/12-12-12-12/14-1414-14--
------------------------------------------------------------------------------
------------------------------------------------------------------------------
------------------------------------------------------------------------------
                                                                              

-------12-0-0-10-0-0-7-0-0-5-0-0-7-0-10-12-0-0-10-0-0-7-0-0-5-0-0-7-0-10-12---
------------------------------------------------------------------------------
-12-12------------------------------------------------------------------------
------------------------------------------------------------------------------
------------------------------------------------------------------------------
------------------------------------------------------------------------------
                                                                              

-0-0-10-0-0-7-0-0-5-0-0-7-0-10-12-0-0-10-0-0-7-7777---------------------------
-----------------------------------------------5555---------------------------
------------------------------------------------------------------------------
-----------------------------------------------------9/10/12/10/9/10/14-14----
------------------------------------------------------------------------------
------------------------------------------------------------------------------
                                                                              

------------------------------------------------------------------------------
------------------------------------------------------------------------17----
--------------------12-12-12-12-12--12/14-14-14/16-16-16-14-16-16/17-17-------
-9/10/12/10/9/10/14-----------------------------------------------------------
------------------------------------------------------------------------------
------------------------------------------------------------------------------
                                                                              

-------17-------17-------17-17-17--17-------17-------17-17--------------------
-17-17----17-------17----17-17-17-----17-------17----17-17--------------------
-------------17-------17-----------------17-------17--------------------------
------------------------------------------------------------------------------
------------------------------------------------------------------------------
------------------------------------------------------------------------------
 Solo                                                                         

------------------------------------------------------------------------------
------------------------------------------------------------------------------
------------------------------------------------------------------------------
----9v------------------------------------------------------------------------
------------------------------------------------------------------------------
-88---------------------------------------------------------------------------
 To Finish, play intro then finish with notes above.v Indicates vibrato.   
Comments