Pearl Jam - Insignificance Chords & Tabs

 

Insignificance Chords & Tabs

Pearl Jam Chords & Tabs

Version: 2 Type: Bass Tab 0 ratings
1 star 2 stars 3 stars 4 stars 5 stars
comments

Insignificance Bass Tab

Insignificance
Pearl Jam's  Binaural
Tabbed by Matt Marchain (DirectR3@aol.com)

Notes in brackets ([]) are tones that the guitars make but that the bass does 
not play in the song.  You can play them.  Just for reference.

Run this through a flanger to get the full effect. 

   Intro                                   (4x) | 
G|----------------------------------------------|------|
D|o-7------7-4------4-2------2-----------------o|------|
A|o----------------------------3-3-3-3-3-3-3-3-o|------|
E|----------------------------------------------|-5----|(let ring for full 
measure)

   Verse riff
G|-------------------------------------------|
D|-----7-7------------------7-7--------------|
A|----------5-5-5-6-6h7----------5-5-5--3-3--|
E|-5-5------------------5-5------------------|
[ Tab from: http://www.guitartabs.cc/tabs/p/pearl_jam/insignificance_btab_ver_2.html ]
   Bridge                                        (3x)|
G|--------[4]--------[4]---------------------------|----------------|
D|o-----------------------------------------------o|----------------|
A|o-3-3-2------3-3-2------3-3-2-/-7-7-7-7-7-7-7-7-o|-8-8-8-8-8-8-8-8|
E|-------------------------------------------------|----------------|

   G|-------[4]--------[4]--------------------------|
   D|-----------------------------------------------|
   A|-3-3-2-----3-3-2------3-3-2---8-8-8-8-8-8-8-8--|
   E|-----------------------------------------------|

   Chorus
G|------------------------------------------------------------------|
D|--7-7-7-7-7-7-7-7-4-4-4-4-4-4-4-4-2-2-2-2-2-2-2-2-----------------|
A|--------------------------------------------------3-3-3-3-3-3-3-3-|
E|------------------------------------------------------------------|

When Ed sings "Insignificance" just play Verse riff

After the quiet interlude the song picks up again.  During this play the 
Chorus.  At one point Jeff plays:
G|----------------------------------------------------------------|
D|----------------------------------------------------------------|
A|-------------------------------------------------3-3-3-3-3-3-3-3|
E|-5-5-5-5-5-5-5-5-2-2-2-2-2-2-2-2-0-0-0-0-0-0-0-0----------------|

That's it.
Comments