Pearl Jam - In Thin Air Chords & Tabs

 

In Thin Air Chords & Tabs

Pearl Jam Chords & Tabs

Version: 1 Type: Tab 0 ratings
1 star 2 stars 3 stars 4 stars 5 stars
comments

In Thin Air Tab

   
Name: Pearl Jam - In Thin Air
Album: Binaural

My 2nd Pearl Jam "Binaural" Tab, Nothing as it seems,
the first. This is a great song to play by yourself
with a steel string accustic. Any Questions, Comments,
Whatever. E-Mail jordanheywood@yahoo.com , or ICQ
#15460669. :)

Accustic
EADGBe

Verse
      E    C    E    E
e|----0----0----0----0----
B|----0----1----0----0----
G|----1----0----1----1----
D|----2----2----2----2----
A|----2----3----2----2----
E|----0----0----0----0----
[ Tab from: http://www.guitartabs.cc/tabs/p/pearl_jam/in_thin_air_tab.html ]
Chorus
      C    D    A    E
e|----0----2----0----0----
B|----1----3----2----0----
G|----0----2----2----1----
D|----2----0----2----2----
A|----3----0----0----2----
E|----0----0----0----0----

                                       E
e|-------------------------------------0-----------
B|--------2-5---2----------------------0-----------
G|----3-4-----------4-6-4-3------------1---0-1-0-1-
D|--------------------------2-----2----2-----------
A|------------------------------4---4--2-----------
E|-------------------------------------0-----------

Bridge

      F    C    G    D    A
e|----0----0----3----2----0
B|----1----1----3----3----2
G|----2----0----0----2----2
D|----3----2----0----0----2
A|----0----3----2----0----0
E|----0----0----3----0----0

If you want the lyrics, mail or find me on icq.

Any probs. Contact me

GuitarGuy

__________________________________________________
Comments