Pearl Jam - Immortality Chords & Tabs

 

Immortality Chords & Tabs

Pearl Jam Chords & Tabs

Version: 1 Type: Tab 0 ratings
1 star 2 stars 3 stars 4 stars 5 stars
comments

Immortality Tab

Pearl Jam, Immortality.
Tabbed by Adam Hall, edman@yahoo.com.
  
--------0------------------------------0----------
----------1------------------------------1--------
-----0------0----------------------0------0------
---2-----------------------------2----------------
-3-------------2---------------3-------------2---
----------------0-------------------------------0

You do this 4 SLOWLY.  Then you brealk into this.

---------------------------------------------------------------
--------0-----------------3-----3------
----------0------------------2----------
-----2----------------0-----------------
-----------------------------------------
-0----------------1--------------------
[ Tab from: http://www.guitartabs.cc/tabs/p/pearl_jam/immortality_tab.html ]
Then, repeat this about 12 times    I think.  Finally, here is the chorus part.



-0--0------------0--0------------0--0---------------------------------
-1--1-----0-----1--1------------1--1---------------------------------
-0--0-----0-----0--0------------0--0-------2---------------------------
-2--2-----2-----2--2-----2-----2--2---2--2----------------------------------
-3--3-----2-----3--3-----2-----3--3---2------------------------------------
-----------------------------0-------------------------------------

Then go back in to the second part.

And Josh, start playing something else besides Elderly Woman!
HEY JOSH 
:: Ultimate Guitar Archive :: 
http://www.ultimate-guitar.com 

Comments