Pearl Jam - Immortality Chords & Tabs

 

Immortality Chords & Tabs

Pearl Jam Chords & Tabs

Version: 1 Type: Chords 0 ratings
1 star 2 stars 3 stars 4 stars 5 stars
comments

Immortality Chords

   
Band: Pearl Jam
Song: Immortality
Album: Vitalogy
Transcriber: Robert Johnstone
Standard Tuning

Intro (play 4 times)
E----------------0--------------------------------------|
B------------------3------------------------------------|
G---------0---------------------------------------------|
D------2------------------------------------------------|
A----3--------------------------------------------------|
E-------------------------0-----------------------------|

Em         D2
Vacate is...

Em                  D2
Vengeance has no...

Em            D2      Em   D2
Cannot find the...

Em       D2
Artificial...

Em                      D2
Vessel stabbed next...

Em                 D2            Em         D2
Vulnerable...


C        Em
A truant...

C           Em
A wish to...

C       Em     A      Asus    A
But there's a...
[ Tab from: http://www.guitartabs.cc/tabs/p/pearl_jam/immortality_crd.html ]
Pre Solo( play 2 times)
E----------------------------9------------------------|
B---10b---8--------7sb--------------------------------|
G-----------------------------------------------------|
D-----------------------------------------------------|
A-----------------------------------------------------|
E-----------------------------------------------------|


Em                  D2
As privileged  as a...

C                Em
A Truant finds...

A
Immortality

Em       D2
Can't stop...

Em         D2
Running in...

Em           D2
Coming up a...

Em         D2
All good truants

C             Em
Stripped and...

C        Em
Auctioned...

C        Em
And whiskers...

C     Em
Truants...

C     Em
Cannot...

C         A
Some die....

Outro
E-------------------9------------|
B----10s8s7s8--------------------|
G--------------------------------|
D--------------------------------|
A--------------------------------|
E--------------------------------|
Comments