Pearl Jam - I Believe In Miracles Chords & Tabs

 

I Believe In Miracles Chords & Tabs

Pearl Jam Chords & Tabs

Version: 1 Type: Bass Tab

I Believe In Miracles Bass Tab

g|---------------------|
d|---------------------|
a|---------------7-7-7-|     2x
e|7-7-7-2-2-3-3-3------|

g|----------------------------------------|
d|----------------------------------------|
a|-------------------------------------7-7|
e|7-7-7-2-2-3-3-3-3-3-3-5-5-5-5-5-5-5-----|

Chorus
[ Tab from: http://www.guitartabs.cc/tabs/p/pearl_jam/i_believe_in_miracles_btab.html ]
g|------------------------------------------------------|
d|------------------------------------------------------|
a|------------------------------------------------------|  4x
e|7-7-7-7-7-7-7-5-5-5-5-5-5-5-3-3-3-3-3-3-2-2-3-3-5-5---|

Brigde

g|--------------------------------|
d|--------------------------------|
a|7~----5~------7~----------------|
e|---------------------7~----5~---|