Pearl Jam - I Am Mine Chords & Tabs

 

I Am Mine Chords & Tabs

Pearl Jam Chords & Tabs

Version: 5 Type: Tab 0 ratings
1 star 2 stars 3 stars 4 stars 5 stars
comments

I Am Mine Tab

   
"I Am Mine"
PEARL JAM
Riot Act
Tabbed by SAM ELDERFIELD
sam_2929@hotmail.com

Well I checked all over the internet for this solo and i couldn't find
it anywhere... Kinda surprising for such an easy solo.. I tabbed it
myself and here's how it goes.. I'm pretty sure this is perfect just
takes some practice to make the e-15^'s sound right...  use lots of 
small bends just by slightly vibrating your hand(where i've indicated with ^'s)
and it sounds good.. I take full credit for tabbing this, hope you're happy
e-mails accepted.
[ Tab from: http://www.guitartabs.cc/tabs/p/pearl_jam/i_am_mine_tab_ver_5.html ]
e--------------------------------------------------------------------
b----10h12^-12^-12-12-12p10---------10-10^-------------12-15---------
g-12------------------------12-9-12--------------12-14-------14-12^--
d-------------------------------------------12-14--------------------
a--------------------------------------------------------------------
e--------------------------------------------------------------------

e--------------------------------15-12-15p12-12h15^-15^-15^-15^-15^--
b--------------------------------------------------------------------
g-14-14-14h16p14-12----12-14-14^-------------------------------------
d-------------------14-----------------------------------------------
a--------------------------------------------------------------------
e--------------------------------------------------------------------

e-12-----------------------------------------------------------------
b----12-12p10--------------------8s10-12^-8h10p8---------------------
g--------------12-9-12-12^-9-12--------------------------------------
d--------------------------------------------------------------------
a--------------------------------------------------------------------
e--------------------------------------------------------------------

Enjoy. Peace
Comments