Pearl Jam - I Am Mine Chords & Tabs

 

I Am Mine Chords & Tabs

Pearl Jam Chords & Tabs

Version: 2 Type: Tab 0 ratings
1 star 2 stars 3 stars 4 stars 5 stars
comments

I Am Mine Tab

   
Artist: pearl jam
Title: i am mine
Album: riot act
Tabbed by: Daniel Venditti



intro:
-0----0-0-0-0----0--0--0--0---------------------------------------------------
-3----6-8-6-5---/6--5--1--3---------------------------------------------------
-2----5-7-5-4---/5--4--2--2---------------------------------------------------
-0----0-0-0-0----0--0--0--0---------------------------------------------------
------------------------------------------------------------------------------
------------------------------------------------------------------------------
                           with riff a 2nd time                               

verse (1st):
-2----1----0---3------|---1----3---0----0-------------------------------------
-3----1----1---3------|---1----3---3----3-------------------------------------
-2----2----0---0-*----|---2----4---2--0h2-------------------------------------
-0----3----2---0------|---3----5---0----0-------------------------------------
-----------3---2------|---3----5---0------------------------------------------
---------------3------|---1----3----------------------------------------------
 *w/ riff b (1st time), riff c (2nd)                           

verse (2nd):
--0---------3-------------------1----3----0--3--5--5-5------------------------
--3--1--1---3-------------------1----3----3--3--3--3-3------------------------
--2--2--0---0-------------------2----4----2--2--2--2-2------------------------
--0--3--2---0-------0-----------3----5----0--0--0--0-0------------------------
--------3---2---0h2-------------3----5----0-----------------------------------
------------3-------------------1----3----------------------------------------
                                                                              

chorus:
--3--------0---------2---3p2------|--2-2-2--3--3--3--3------------------------
--3--------1---------3-----3------|--3-3-3--3--3--3--3------------------------
--0--------2---------2-----2------|--2-2-2--0--0--0--0------------------------
--0--------2---------0-----0------|--0-0-0--2--2--2--2------------------------
--2--------0----------------------|---------3--3--3--3------------------------
--3-------------------------------|-------------------------------------------
 'feeling  gets left behind..        post chorus
  w/ riff d                                


interlude:
--0--0-0--0--0-0--0-0---0--0--0---0-0-0--0--0-0--0--0-0--0--0-0-0-0-0-0--0-0--
--3--6-8--6--3-3--3-3---3--3--3---6-8-6--3--3-3--3--3-3--3--3-6-8-6-3-3--3-3--
--2--5-7--5--2-2--2-0---0--0--2---5-7-5--2--2-2--0--0-0--2--2-5-7-5-2-2--2-0--
--0--0-0--0--0-0--0-----------0---0-0-0--0--0-0----------0--0-0-0-0-0-0--0----
--------------------3---3--3---------------------3--3-3--------------------3--
------------------------------------------------------------------------------
 w/ riff e                                                                    
[ Tab from: http://www.guitartabs.cc/tabs/p/pearl_jam/i_am_mine_tab_ver_2.html ]
-0---0-0--0--0--0--0--0-0-0--0--0---------------------------------------------
-3---3-3--6--8--6--3--6-8-6--3--3---------------------------------------------
-0---2-2--5--7--5--2--5-7-5--2--2---------------------------------------------
-----0-0--0--0--0--0--0-0-0--0--0---------------------------------------------
-3----------------------------------------------------------------------------
------------------------------------------------------------------------------
     repeat and go into chorus                                                



**riffs**
A:                   B:             C:               D:  
-------------------|--3-----------|--3h5p3--3------|--------------------------
-3----6-----5------|----3---------|---------3------|--------------------------
-2----5-----4------|------0-------|----------------|--7-5-4---4-5------7-5-4--
-0----0-----0------|--------------|----------------|--------7-----7v----------
-------------------|--------------|----------------|--------------------------
-------------------|--------------|----------------|--------------------------
                 

------------------------------------------------------------------------------
------------------------------------------------------------------------------
---4-5---4-5------------------------------------------------------------------
-7-----7-----7v---------------------------------------------------------------
------------------3-2-0-2-----------------------------------------------------
--------------------------3---------------------------------------------------

E:                            
------------------------------------------------------------------------------
-3---6-8--6--3------3---------3-----------------------------------------------
-2---5-7--5--2------0---------2-----------------------------------------------
-0---3-5--3--0------2---------0-----------------------------------------------
--------------------3---------------------------------------------------------
------------------------------------------------------------------------------


studio solo:
---15-------------------------------------------------------------------------
------15-----15-----------------------------------15--------------------------
---------14b----14br-12----12h14-14vv------12-14b----14brp12----12-14brp12----
------------------------14--------------14-------------------14---------------
------------------------------------------------------------------------------
------------------------------------------------------------------------------
                                                                                                                                                          

--------------15-----15--15-15-15-15--15-12-----------------------------------
-----------------15--15--15-15-15-15--15-15-15--------------------------------
-----12-14vv-----------------------------------14brp12----12v----12-14/16vv---
--14---------------------------------------------------14-----14--------------
------------------------------------------------------------------------------
------------------------------------------------------------------------------
                                                                              

Comments