Pearl Jam - I Am Mine Chords & Tabs

 

I Am Mine Chords & Tabs

Pearl Jam Chords & Tabs

Version: 1 Type: Bass Tab 0 ratings
1 star 2 stars 3 stars 4 stars 5 stars
comments

I Am Mine Bass Tab

PEARL JAM -  I AM MINE

Tabbed By:kwistufa
intro

G------------------------------------------------
D------------------------------------------------
A---5---------5----------------------------------
E-------------------5--5--5--5--5--5-------------

this is the main type intro, just hanging D's 
then trudging A's into the verse
verse

G------------------------------------------------
D------------------------------------------------
A-----5-0------8-0-----7-----0------3-------0----  x 3
E------------------------------------------------

 then

G------------------------------------------------
D------------------------------------------------
A-----3----------5-------------------------------
E----------3-------------------------------------

which is played once the 1st time the (x3)above
 completes its cycle then twice on the 2nd time
 round building to the chorus

chorus

G------------------------------------------------
D------------------------------------------------
A-------------------5------5---5-----------------
E----3------5------------------------------------
[ Tab from: http://www.guitartabs.cc/tabs/p/pearl_jam/i_am_mine_btab.html ]
with all the usual Jeff runs connecting it.
But this'll do for you plodders. Does this 3 times
then goes to an outro/bridgey thing from the chorus

G------------------------------------------------
D------------------------------------------------
A----3-----3----3----3-----5----5----5-----5-----
E------------------------------------------------

G------------------------------------------------
D------------------------------------------------
A---5---5---5---5--------------------------------
E---------------------5---5----------------------

back to verse...
thats basically it! At the end of the second 
chorus in the outro thingy they do it a lil
 different, not much, 

G------------------------------------------------
D------------------------------------------------
A------------5---5----3---3---3---3---5---5---5--
E---3----5---------------------------------------

G------------------------------------------------
D------------------------------------------------
A--3----5--5--5--3----5--5--5--3----5--5--5--5--5
E------------------------------------------------

and so on back to the last chorus where you can use
your imagination a lttle but sticking to the main
pattern. I take no responsibility for any inaccuracies
or mistakes, its just how I worked it out.
BTW, this is my 1st "TAB"
Any queries - kwistufa@hotmail.com  2/12/2002

PEARL JAM ARE SUPREME!!
Comments