Pearl Jam - Hail Hail Chords & Tabs

 

Hail Hail Chords & Tabs

Pearl Jam Chords & Tabs

Version: 2 Type: Tab 0 ratings
1 star 2 stars 3 stars 4 stars 5 stars
comments

Hail Hail Tab

   
Hail Hail - Pearl Jam


This file is the author's own work and represents their interpretation
of the song. You may only use this file for private study, scholarship,
or research. 

Transcribed by Manuel de Verdier
f94-mdv@nada.kth.se
 

Riff 1:

e:-------------------------------------------------------------------|
h:-------------------------------------------------------------------|
g:--7-7-7--10--10-10--6--6-6--7--7-7-----------------5--5-5--3--3-3--|         
d:--7-7-7--10--10-10--6--6-6--7--7-7--5-5-5--7--7-7--5--5-5--3--3-3--|         
A:--5-5-5---8---8--8--4--4-4--5--5-5--5-5-5--7--7-7--3--3-3--1--1-1--|
E:------------------------------------3-3-3--5--5-5------------------|


Riff 2 (2 times)...

e:---------------------------------|
h:---------------------------------|
g:--3-3-3--------------------------|        
d:--3-3-3-5(5-5-5-5-5-5-5-5-5-5-5)-|         
A:--1-1-1-5(5-5-5-5-5-5-5-5-5-5-5)-|
E:--------3(3-3-3-3-3-3-3-3-3-3-3)-|

...and then:

e:|-------------------------------|-------------------------------|
h:|-------------------------------|-------------------------------|
g:|--3-3-3-------3-3-3-3-3-3-3-3--|------3-3-3-3-3-3-3-3-3-3-3-3--|
d:|--3-3-3-5-5-5-3-3-3-3-3-3-3-3--|5-5-5-3-3-3-3-3-3-3-3-3-3-3-3--|          
A:|--1-1-1-5-5-5-1-1-1-1-1-1-1-1--|5-5-5-1-1-1-1-1-1-1-1-1-1-1-1--|
E:|--------3-3-3------------------|3-3-3--------------------------|


Riff 3 (2 times):

e:---------------------------------|
h:---------------------------------|
g:--5-5-5--------------------------|  
d:--5-5-5-5(5-5-5-5-5-5-5-5-5-5-5)-|    
A:--3-3-3-5(5-5-5-5-5-5-5-5-5-5-5)-|
E:--------3(3-3-3-3-3-3-3-3-3-3-3)-|

...and then::

e:|-------------------------------|-------------------------------|
h:|-------------------------------|-------------------------------|
g:|--5-5-5-------3-3-3-3-3-3-3-3--|------3-3-3-3-3-3-3-3-3-3-3-3--|          
d:|--5-5-5-5-5-5-3-3-3-3-3-3-3-3--|5-5-5-3-3-3-3-3-3-3-3-3-3-3-3--|          
A:|--3-3-3-5-5-5-1-1-1-1-1-1-1-1--|5-5-5-1-1-1-1-1-1-1-1-1-1-1-1--|
E:|--------3-3-3------------------|3-3-3--------------------------|


Riff 4:

e:------------------------------|
h:------------------------------|
g:--7-7-7--6-6-6--5-5-5---------|           
d:--7-7-7--6-6-6--5-5-5--5-5-5--|          
A:--5-5-5--4-4-4--7-7-7--5-5-5--|
E:-----------------------3-3-3--|


Lyrics:

Is there room enough for both of us?
Both of us apart?
Are we bound out of obligation?
Is that all we got?
(I)Get the words and then I get to thinking
I don't want to think I wanna feel
How do I feel?
How do I?

Chorus:
If you're the only one
Will I ever be enough?
Hail hail the lucky ones
I refer to those in love

Swore I'd love till the day I die
And beyond
Are we going to the same place?
If so, can I come?
It's egg rolling thick and heavy
The past we carry
I could be new
You underestimate me

Chorus

I sometimes realize
I could only be as good
As you let me
Are you woman enough to be my man?
Bandaged hand in hand

Chorus II:

?
?
Hail hail the lucky ones
I refer to those in love

That you're the only one
So good you, only one
I want to be your one
Your one
Your one


Words & music: Stone Gossard, Eddie Vedder, Jeff Ament, Mike McCready
Date: Sun, 05 Jan 1997 14:20:48 -0500
From: Pamela Callaway 
Subject: "Hail, Hail" by Pearl Jam

Posted by Bob ^Hawk^ Callaway 
January 5, 1997 
Email Comments to rdcallaway@juno.com

^Hail, Hail^ 
by 
Pearl Jam

Off the recently released album, No Code

Written by : Stone Gossard, Eddie Vedder, Jeff Ament, Mike McCready 

The song and this tab are in standard tuning. This isn^t a very hard 
song to play, basically patterns with variations.

Introduction/Chorus

E|---------------------------------------------------------------------------------------------------------|
B|---------------------------------------------------------------------------------------------------------|
G|--7------------6----7---------------------------------7------------6-----7----------------------------|
D|--7-----7-----6-----7-----5-----7-----10-----8-----7-----7------6-----7-----5-----7----10---8---|
A|--5-----7-----4-----5-----5-----7-----10-----8-----5-----7------4-----5-----5-----7----10---8---|
E|---------5------------------3-----5-----8------6------------5-------------------3-----5----8----6---|

Verse 

E|---------------------------------------------------------------------------------------------|
B|---------------------------------------------------------------------------------------------|
G|---------------------------------------------------------------------------------------------|
D|----5----5---5---5---5---5---5---5---8--8--8--5--5--5--5--5--5--5--5--8--8--8------|
A|----5----5---5---5---5---5---5---5---8--8--8--5--5--5--5--5--5--5--5--8--8--8------|
E|----3----3---3---3---3---3---3---3---6--6--6--3--3--3--3--3--3--3--3--6--6--6------|
								
E|------------------------------------------------------------------------------------------------|
B|------------------------------------------------------------------------------------------------|
G|------------------------------------------------------------------------------------------------|
D|----5--5--5--8--8--8--8--8--8--8--8--8--5--5--5--8--8--8--8--8--8--8--8--10-10-10-|
A|----5--5--5--8--8--8--8--8--8--8--8--8--5--5--5--8--8--8--8--8--8--8--8--10-10-10-|
E|----3--3--3--6--6--6--6--6--6--6--6--6--3--3--3--6--6--6--6--6--6--6--6---8--8--8---|

Back to Introduction/Chorus

Then , Guitar 1 plays over and over :

E|-----------------------------------------------------------------------------------------------|
B|-----10^8^7^8^10^8^7^8^10^8^7^8^10^8^7--8--10--8--7--8--|
G|-----------------------------------------------------------------------------------------------|
D|-----------------------------------------------------------------------------------------------|
A|-----------------------------------------------------------------------------------------------|
E|-----------------------------------------------------------------------------------------------|

Underneath Guitar 1, Guitar 2 plays:
[ Tab from: http://www.guitartabs.cc/tabs/p/pearl_jam/hail_hail_tab_ver_2.html ]
E|-----------------------------------------------------|
B|-----------------------------------------------------|
G|--7------------6----7-----------------6-----7-----|
D|--7-----7-----6-----7---------7------6-----7-----|
A|--5-----7-----4-----5---------7------4-----5-----|
E|---------5----------------------5-------------------|

Play this until end of the song!

E|-----------------------------------------------------------------------------------------------|
B|-----10^8^7^8^10^8^7^8^10^8^7^8^10^8^7--8--10--8--7--8--|
G|-----------------------------------------------------------------------------------------------|
D|-----------------------------------------------------------------------------------------------|
A|-----------------------------------------------------------------------------------------------|
E|-----------------------------------------------------------------------------------------------|

Lyrics:

Is there room for both of us
both of us apart?
Are we bound out of obligation? 
Is that all we^ve got?
I get the words,
and when I get to thinking
I don^t want to think, 
I want to feel
How do I feel? ^. 
How do I? ^.

If you^re they only one 
when I^ve had enough
Hail, Hail to the lucky ones
I refer to those in love

I swore I^d love
until the day I die
^and beyond^
Are we going 
to the same place?
If so, can I come?
It^s egg rolling 
thick and heavy 
the past we carry 
I could be new
You underestimate me

If you^re the only one 
when I^ve had enough
Hail, hail to the lucky ones
 I refer to those in love

I sometimes realize 
I could only be as good
as you let me
Are you woman enough
to be my man?
Bandaged hand in hand

I climbed it on
I run in a race
that can^t be won
All hail the lucky ones
I refer to those in love
If you^re my only one 
So good you, only one
I want to be your only one
enough, your one
your one, your one

Enjoy! (
^U^Uo^Hdo^H
o^H
o^Hdo^H
o^H

======================================================

Posted by Bob ^Hawk^ Callaway 
January 5, 1997 
Email Comments to rdcallaway@juno.com

^Hail, Hail^ 
by 
Pearl Jam

Off the recently released album, No Code

Written by : Stone Gossard, Eddie Vedder, Jeff Ament, Mike McCready 

The song and this tab are in standard tuning. This isn^t a 
very hard song to play, basically patterns with variations.

Introduction/Chorus

E|---------------------------------------------------------------------------------------------------------|
B|---------------------------------------------------------------------------------------------------------|
G|--7------------6----7---------------------------------7------------6-----7----------------------------|
D|--7-----7-----6-----7-----5-----7-----10-----8-----7-----7------6-----7-----5-----7----10---8---|
A|--5-----7-----4-----5-----5-----7-----10-----8-----5-----7------4-----5-----5-----7----10---8---|
E|---------5------------------3-----5-----8------6------------5-------------------3-----5----8----6---|

Verse 

E|---------------------------------------------------------------------------------------------|
B|---------------------------------------------------------------------------------------------|
G|---------------------------------------------------------------------------------------------|
D|----5----5---5---5---5---5---5---5---8--8--8--5--5--5--5--5--5--5--5--8--8--8------|
A|----5----5---5---5---5---5---5---5---8--8--8--5--5--5--5--5--5--5--5--8--8--8------|
E|----3----3---3---3---3---3---3---3---6--6--6--3--3--3--3--3--3--3--3--6--6--6------|
								
E|------------------------------------------------------------------------------------------------|
B|------------------------------------------------------------------------------------------------|
G|------------------------------------------------------------------------------------------------|
D|----5--5--5--8--8--8--8--8--8--8--8--8--5--5--5--8--8--8--8--8--8--8--8--10-10-10-|
A|----5--5--5--8--8--8--8--8--8--8--8--8--5--5--5--8--8--8--8--8--8--8--8--10-10-10-|
E|----3--3--3--6--6--6--6--6--6--6--6--6--3--3--3--6--6--6--6--6--6--6--6---8--8--8---|

Back to Introduction/Chorus

Then , Guitar 1 plays over and over :

E|-----------------------------------------------------------------------------------------------|
B|-----10^8^7^8^10^8^7^8^10^8^7^8^10^8^7--8--10--8--7--8--|
G|-----------------------------------------------------------------------------------------------|
D|-----------------------------------------------------------------------------------------------|
A|-----------------------------------------------------------------------------------------------|
E|-----------------------------------------------------------------------------------------------|

Underneath Guitar 1, Guitar 2 plays:

E|-----------------------------------------------------|
B|-----------------------------------------------------|
G|--7------------6----7-----------------6-----7-----|
D|--7-----7-----6-----7---------7------6-----7-----|
A|--5-----7-----4-----5---------7------4-----5-----|
E|---------5----------------------5-------------------|

Play this until end of the song!

E|-----------------------------------------------------------------------------------------------|
B|-----10^8^7^8^10^8^7^8^10^8^7^8^10^8^7--8--10--8--7--8--|
G|-----------------------------------------------------------------------------------------------|
D|-----------------------------------------------------------------------------------------------|
A|-----------------------------------------------------------------------------------------------|
E|-----------------------------------------------------------------------------------------------|

Lyrics:

Is there room for both of us
both of us apart?
Are we bound out of obligation? 
Is that all we^ve got?
I get the words,
and when I get to thinking
I don^t want to think, 
I want to feel
How do I feel? ^. 
How do I? ^.

If you^re they only one 
when I^ve had enough
Hail, Hail to the lucky ones
I refer to those in love

I swore I^d love
until the day I die
^and beyond^
Are we going 
to the same place?
If so, can I come?
It^s egg rolling 
thick and heavy 
the past we carry 
I could be new
You underestimate me

If you^re the only one 
when I^ve had enough
Hail, hail to the lucky ones
 I refer to those in love

I sometimes realize 
I could only be as good
as you let me
Are you woman enough
to be my man?
Bandaged hand in hand

I climbed it on
I run in a race
that can^t be won
All hail the lucky ones
I refer to those in love
If you^re my only one 
So good you, only one
I want to be your only one
enough, your one
your one, your one
Comments