Pearl Jam - Given To Fly Chords & Tabs

 

Given To Fly Chords & Tabs

Pearl Jam Chords & Tabs

Version: 4 Type: Tab 0 ratings
1 star 2 stars 3 stars 4 stars 5 stars
comments

Given To Fly Tab

   
#----------------------------------PLEASE NOTE---------------------------------#
#This file is the author's own work and represents their interpretation of the #
#song. You may only use this file for private study, scholarship, or research. #
#------------------------------------------------------------------------------#
#
 --------------------------
 Pearl Jam - Given to fly
 TAB by Peter Blunden
 --------------------------


Intro - Other guitar(?) plays a G chord

E -----------------------------|
B --6/8-----12-------5/7--5-3--|
G --------0----0---------------|
D -----------------------------|
A --7/9-----------12-7/9--7-5--|
E -----------------------------|

E ---------------------------|
B --6/8-----12-------5/7--3--|
G --------0----0-------------|
D ---------------------------|
A --7/9-----------12-7/9--5--|
E ---------------------------|

Then,

E --5-0-0-2---5-0-0-2--|
B --3-3-3-3---3-3-3-3--|
G --2-2-2-2---2-2-2-2--|
D ---------------------|
A ---------------------|
E ---------------------|

if you have someone else playing chords,
they just do a D and you just have to play

E --5-0-0-2--5-0-0-2---

sometimes they put a little pll of in too, like:

E --5-0-0-2--7p5-0-0-2--

Keep playing this throughout the verses...
and thats pretty much it!

Bit of practice and you should get it ok : )

I find it easier if i dont use a pick...

Put This other TAB in here too, coz it has chords and lyrics...
Cheers to Mike Baker.

---------------------------------------------------------------------

Date: Wed, 03 Dec 1997 14:18:12 -0600
From: Mike Baker

[ Tab from: http://www.guitartabs.cc/tabs/p/pearl_jam/given_to_fly_tab_ver_4.html ]
These are the chords to the new PJ song "Given To Fly" on the forthcoming album, Yield.  I am just putting 
basic chords, Mike is doing some pretty cool improve on different variations of these chords.  Anyway, 
should give the basic idea.
			"Given To Fly" Chords

G
he could have turned in...turned in..but he turned out
                                                         D
a bad time, nothing could save him
G
alone in a corridor, waiting, locked out
						D
he got up out of their way, ran for hundreds of miles
G
he made it to the ocean, had a smoke and a tea
					 D
the wind rose up, set him down on his knees

G
A wave came crashin' like a fist to the jaw
					 D
delivered him.. wings high, look at him now
G
arms wide open with the sea as he's flung
		 D
oh how...ohhhh...
   C9---Mute---C9,C9/B,G Repeat			G   D
he is flyin...ohhh....high....whyyy....ohhhh.....

G
he floated back down cause he wanted to share
					D
this key to the locks on the chains he saw everywhere...
G
but first he was stripped, and then he was stabbed

by a faceless man, the fuckers
   D
he still stands...

G
and he still gives his love, he just gives it away
				  D
the love he receives is the love that is saved
G
and sometimes is seen a strange spot in the sky...
				        D
A HUMAN BEING THAT WAS GIVEN TO FLY

C9---Mute---C9,C9/B,G Repeat					G   D
flying....ohhhh....high....flying.....ohhhh.....he is....flying.....ohhhh.....

Transcribed by: Mike Baker
http://www.mcs.net/~ubbaker
Comments