Pearl Jam - Footsteps Chords & Tabs

 

Footsteps Chords & Tabs

Pearl Jam Chords & Tabs

Version: 1 Type: Tab 1 rating
1 star 2 stars 3 stars 4 stars 5 stars
comments

Footsteps Tab

#----------------------------------PLEASE NOTE--------------------------------#
#This file is the author's own work and represents their interpretation of the#
#song. You may only use this file for private study, scholarship, or research.#
#-----------------------------------------------------------------------------#
#-- File created with Instab - http://www.pconline.com/~smcarey/instab.html --#
#-----------------------------------------------------------------------------#

Author/Artist: Pearl Jam
Title: Footsteps
Album: Jeremy Single
Transcribed by: Rick S.
Email: ricksloukji@hotmail.com

just beautiful live.
[ Tab from: http://www.guitartabs.cc/tabs/p/pearl_jam/footsteps_tab.html ]
------------------------------------------------------------------------------
------------------------------------------------------------------------------
-----0------------------------------------------------------------------------
-----0------------------------------------------------------------------------
------------------------------------------------------------------------------
-1h3---1----------------------------------------------------------------------
 h indicates hammer on. play around with this for intro and verses.           

------------------------------------------------------------------------------
-1--3-------------------------------------------------------------------------
-2--4-------------------------------------------------------------------------
-0--0-------------------------------------------------------------------------
-3--5-------------------------------------------------------------------------
------------------------------------------------------------------------------
 these are the chords for the chorus. make sure you slide up.                 

-3--0-------------------------------------------------------------------------
-3--2-------------------------------------------------------------------------
-0--2-------------------------------------------------------------------------
-0--2-------------------------------------------------------------------------
-2--0-------------------------------------------------------------------------
-3--0-------------------------------------------------------------------------
 chords for the "footsteps in the hall" part                                  

Comments