Pearl Jam - Fatal Chords & Tabs

 

Fatal Chords & Tabs

Pearl Jam Chords & Tabs

Version: 1 Type: Tab 0 ratings
1 star 2 stars 3 stars 4 stars 5 stars
comments

Fatal Tab

Song: Fatal B side from pearl jam you can find it on Lost Dogs

Intro:  Pick first 2 notes then play whole chord Am,C,F,Em
Chorus: Strum D changing from D to Dsus to Dsus2 then end with C and F

[ Tab from: http://www.guitartabs.cc/tabs/p/pearl_jam/fatal_tab.html ]
e|-intro-------------------------------|
B|------1-----1------1-----------------|
G|------2-----0------2-----0-----------|
D|----2-2---2-2------3-----2-----------|
A|--0---0--3--3----3-3--2--2---repeat--|
E|---------------1---1--0--0-----------|

e|-chorus---2--3-0---------------------|
B|----------3--3-3----repeat----1---1--|
G|----------2--2-2--------------0---2--|
D|----------0--0-0--------------2---3--|
A|------------------------------3---3--|
E|----------------------------------1--|
Comments