Pearl Jam - Even Flow Chords & Tabs

 

Even Flow Chords & Tabs

Pearl Jam Chords & Tabs

Version: 4 Type: Tab 0 ratings
1 star 2 stars 3 stars 4 stars 5 stars
comments

Even Flow Tab

#-----------------------------------------------------------------------------#
#-- File created with Instab - http://www.pconline.com/~smcarey/instab.html --#
#-----------------------------------------------------------------------------#

Author/Artist: Pearl Jam
Title: Even Flow
Album: Ten
Transcribed by: El Scorcho
Email: longview931@hotmail.com

No solos, mike mccredy is unbelievable at what 
he does, which makes it unbelievebly hard
for me to tab it it out.  I'll try to do it when I get
the time (or patience)

and thats it, like i said, the solos are too hard and fast.
 So you'll have to figure them out yourself
                  later - scorcho                                          

------------------||----------------------------------------------------------
------------------||----------------------------------------------------------
---------7-7-7-7--||---------------------7--------------7---------------------
---------5-5-5-5--||---------------------7--------------7---------------------
---------5-5-5-5--||--------5-3-0-3---5--5--------------5---------------------
-5--8-------------||-------------------------------5--8-----------------------
      intro/verse           end of intro/verse                                
[ Tab from: http://www.guitartabs.cc/tabs/p/pearl_jam/even_flow_tab_ver_4.html ]
------------------||------------------||--------------------------------------
------------------||------------------||--------------------------------------
----7---3----7---5||-------10-9-------||-----11-------------------------------
----7---3----7---5||------------10b---||--------12-10-------------------------
----5---1----5---3||------------------||--------------------------------------
------------------||------------------||--------------------------------------
    chorus              he don't know...  him away/life again                 

------------------------------------------------------------------------------
------------------------------------------------------------------------------
--12-11---------12-11---------------------------------------------------------
--------12-8----------10b-----------------------------------------------------
------------------------------------------------------------------------------
------------------------------------------------------------------------------
 or you play the chorus in lead guitar, like this                             

------------------------------------------------------------------------------
------------------------------------------------------------------------------
---555555-77777---------------------------------------------------------------
---555555-77777---------------------------------------------------------------
---333333-55555---------------------------------------------------------------
------------------------------------------------------------------------------
  bridge, no solo for you fat boy                                               

------------------------------------------------------------------------------
------------------------------------------------------------------------------
-12--10----10-------10-12-----------------------------------------------------
--------12----10-12-----------------------------------------------------------
------------------------------------------------------------------------------
------------------------------------------------------------------------------
Comments