Pearl Jam - Even Flow Chords & Tabs

 

Even Flow Chords & Tabs

Pearl Jam Chords & Tabs

Version: 3 Type: Bass Tab 0 ratings
1 star 2 stars 3 stars 4 stars 5 stars
comments

Even Flow Bass Tab

   
#----------------------------------PLEASE NOTE---------------------------------#
#This file is the author's own work and represents their interpretation of the #
#song. You may only use this file for private study, scholarship, or research. #
#------------------------------------------------------------------------------##
From: PePPeRs0o@aol.com
Date: Sun, 19 Nov 1995 13:39:48 -0500
Subject: btab: Evenflow by Pearl Jam

===================
Evenflow
from the album Ten
by PePPeRs 0o@aol.com
===================
This song is dropped D tuning

intro and verse                                     harmonic

-||------------------------------||------------------------|------|
-||*----------------------------*||-----------------------|----5-|
-||*-----------------5---5-----*||-5-3-----------------|----5-|
-||--0-5h7-----0---0---0-0--||------6-5-3-0-3-5-|--0---|



  intro into chorus           
--------------------------
---------------------------
-5-3----------------------
------6-5-3-0-3-5-------
[ Tab from: http://www.guitartabs.cc/tabs/p/pearl_jam/even_flow_btab_ver_3.html ]
chorus D5                    Bb5                              
-----------------------3---------|-----3--------------------|-------
---------------------------1--0-|---------------------------|-------
-----------5----5-\1------------|-1-1---1---1-1-1---3/|-------
--------------0------------------|---------------------------|-------

    D5             C5
------------------------5-----------|-----5-----------------------|
----0---------0--------------------|------------------------------|
-------------------3----------3-0-|-3-------3---3-3-3-3---0-|
---------0--------------------------|------------------------------|

"ohh whispring hands" part     D5     Bb5                               
----------5-5-5----------5-5-5-----|------------------3-------
----------------------------------------|--0-----0\----------------
-3-3-3----------3-3-3--------3-0--|-------------1------1--0--
----------------------------------------|-----0--------------------

 D5                     C5
---3------------|-----------------------------------------5-----
-----------------|------------------------------------------------
-1---1-1-1-1-|-5--1------1--1-1-1-3/---5---5-3----3-0-      
----------------|----------------------------0--------------------     

Guitar Solo
------------------------------------------------     
------------------------------------------------
----3-----3--4----4--5---5--5---5--0-----
------------------------------------------------
from PePPeRs 0o@aol.com


Comments