Pearl Jam - Even Flow Chords & Tabs

 

Even Flow Chords & Tabs

Pearl Jam Chords & Tabs

Version: 2 Type: Bass Tab 0 ratings
1 star 2 stars 3 stars 4 stars 5 stars
comments

Even Flow Bass Tab

   
From: MOSCHETTI@delphi.com 
Date: Tue Jul 25 17:53:18 1995   
[ Tab from: http://www.guitartabs.cc/tabs/p/pearl_jam/even_flow_btab_ver_2.html ]
Okay, here's Even Flow, got it out of the book so it's got to be accurate.
Jeff plays it on a fretless, but he tabbed it like this.  There are harmonics
 at the end of the intro- 55 on a and d,
then slide up.
INtro/verses:
G[----------------------------]
D[*-------------------------*]
A[*-------------------------*]
E[---0-57--0-5--0-5-0-0----]
Just before Eddie goes "yeah" play this:
G[--------------------]
D[-------------------*]
A[-5-3--------------*]
E[------6-5-3-0-3-5-]
Then go back to verse 3X, then the thing above again.
 Here's the chorus:
G[-------------3-----------3-------------------------5--------5----------*]
D[-----------------------------------------0----0------------------------*]
A[-5----5\-1-----1-0-1-1----1-1-1-1-3/---------3----3-0-3----3-3-3-3-3-0-*]
E[----0---------------------------------------0--------------------------*]
You can easily figure out where they go. The other part is quite simple.
G[--------------------------------]
D[-------------------------------*]
A[-3-3-3-3-3-4-5-5-5-5-5-5-0-*]
E[---------------------------------]

sorry it got a little messed up. hope it's alright.
Comments