Pearl Jam - Down Chords & Tabs

 

Down Chords & Tabs

Pearl Jam Chords & Tabs

Version: 1 Type: Tab 0 ratings
1 star 2 stars 3 stars 4 stars 5 stars
comments

Down Tab

Pearl Jam - Down
Submitted By: Abraham Massry


Intro
E|---0------------------------------------------------------------------------||
B|---1------------------------------------------------------------------------||
G|---2------------------------------------------------------------------------||
D|---2------------------------------------------------------------------------||
A|---0------------------------------------------------------------------------||
E|---------------------------------------------------------------------------||

Verse 1
E|----1--0---------0-------2h3p2p0-------------------------------------------------------||
B|----0--1---------1-------3--------------------------------------------------------||
G|----0--0------0--0----0--2----------------------------------------------------------||
D|----0--2------0--2----0--0----------------------------------------------------------||
A|----2--3--2---2--3--2-2-------------------------------------------------------------||
E|----3-------3-3-------3---------------------------------------------------------||
Down......

Verse 2
E|----0---3-2-0------------2--0--------------2-------------------------------||
B|----1---------3-1-0------3--1--------------3--------------------------||
G|----0---------------2-0--2--0--------------2-------------------------||
D|----2-let ring-----------0--2--------------0----------------------------||
A|----3-let ring--------------3-3-2-0-3-2-0---------------------------------||
E|--------------------------------------------------------------------||
the names...
[ Tab from: http://www.guitartabs.cc/tabs/p/pearl_jam/down_tab.html ]
Verse 3
E|-------------0--------------------------------------------------------------||
B|-------------1--------------------------------------------------------------||
G|---9---------2---------------------------------------------------------------||
D|---9--9--10--2-----------------------------------------------------------------||
A|---7--9--10--0------------------------------------------------------------------||
E|------7--8-------------------------------------------------------------------||
loaded, told that...

Solo...??? 

Verse 4
E|---0--0--0--------------------------------------------------------------------||
B|---0--1--1--------------------------------------------------------------------||
G|---0--2--0--------------------------------------------------------------------||
D|---2--2--2--------------------------------------------------------------------||
A|---2--0--3--------------------------------------------------------------------||
E|---0------------------------------------------------------------------------||
won't let the light escape from me

Solo2...??

Outro
E|---3---3---------------------------------------------------------------------||
B|---0---2---------------------------------------------------------------------||
G|---0---3---------------------------------------------------------------------||
D|---0---0---------------------------------------------------------------------||
A|---2------------------------------------------------------------------------||
E|---3------------------------------------------------------------------------||


Order
-----
Intro
Verse 1
Verse 2
Verse 3
Verse 1
Verse 2
Verse 3
Verse 4
Verse 1 during solo 2
Outro
Comments