Pearl Jam - Do The Evolution Chords & Tabs

 

Do The Evolution Chords & Tabs

Pearl Jam Chords & Tabs

Version: 4 Type: Tab 0 ratings
1 star 2 stars 3 stars 4 stars 5 stars
comments

Do The Evolution Tab

-------------------------------------------------------------------------------
			 DO THE EVOLUTION - PEARL JAM
-------------------------------------------------------------------------------
The other tabs i read don't seem to be in the right key at all so i listened and came up 
with this. It seems to go seamlessly with the album version but feel free to make some 
corrections

Tuning: Standard



GUITAR 1

e|--------------------------------------------------------------------------
B|--------------------------------------------------------------------------
G|--------------7-------------7---------------------------------------------
D|-x----7---7-9-7---------7-9-7---------------------------------------------
A|-x--9-7-9-7-9-------7-9-7-9-----------------------------------------------
E|-x--9---9--------/9---9---------------------------------------------------



GUITAR 2 (IN AFTER A COUPLE BARS)
[ Tab from: http://www.guitartabs.cc/tabs/p/pearl_jam/do_the_evolution_tab_ver_4.html ]
e|--------------------------------------------------------------------------
B|-----------4--------------4-----------------------------------------------
G|-0-3-0-3-5-3----0-3-0-3-5-3-----------------------------------------------
D|-0-3-0-3-5------0-3-0-3-5-------------------------------------------------
A|--------------------------------------------------------------------------
E|--------------------------------------------------------------------------



CHORUS

e|--------------------------------------------------------------------------
B|--------------------------------------------------------------------------
G|-3--3-3-3-3-3-3-2--2-2-1--1-1---------------------------------------------
D|-3--3-3-3-3-3-3-2--2-2-1--1-1---------------------------------------------
A|-3--3-3-3-3-3-3-2--2-2-1--1-1---------------------------------------------
E|--------------------------------------------------------------------------


BRIDGE

e|--------------------------------------------------------------------------
B|--------------------------------------------------------------------------
G|--------------------------------------------------------------------------
D|-3--0-0--0--0-3--0-0--0--0-2--0-----------0-2---------3--0-2--0-----------
A|--------------------------------3--3--3-3-----3-1--0----------------------
E|--------------------------------------------------------------------------

e|-0--------------------------------------|
B|-3--15-15-15-15-15-15-15---15-15-15/----|
G|-2--14-14-14-14-14-14-14---14-14-14/----|
D|----------------------------------------|
A|----------------------------------------|
E|----------------------------------------|



THAT'S PRETTY MUCH IT. JUST MIX AND MATCH THOSE TO WHERE THEY BELONG .
Comments