Pearl Jam - Dead Man Walking Chords & Tabs

 

Dead Man Walking Chords & Tabs

Pearl Jam Chords & Tabs

Version: 1 Type: Bass Tab 0 ratings
1 star 2 stars 3 stars 4 stars 5 stars
comments

Dead Man Walking Bass Tab

Dead Man Walking 
Pearl Jam
Tabbed by Nick Key (nkey@ionet.net)

I'm not sure if any of these chords are right.  
I don't even know ifJeff plays other than the instrumental.  Crap.

Intro

|----------------------------------|
|----------------------------------|
|----------------------------------| 
|-5-5-5-5-3-3-3-3-0-0-0-0-0-0-0-0--|

|-----------------------------------|
|-----------------------------------|
|-5-5-5-5---------------------------| 
|---------3-3-3-3-0-0-0-0-0-0-0-0-5-|

For the verse, play F in quarter notes until:

Pre-chorus

"He's magnified..."
|---------------------------------------------------|
|---------------------------------------------------|
|-7-7-5-8-8-8-8-7-7-5-8-8-8-8-8-8-8-8-3-3-3-3-5--5--| 
|---------------------------------------------------|
[ Tab from: http://www.guitartabs.cc/tabs/p/pearl_jam/dead_man_walking_btab.html ]
Play F again for verse, then pre-chorus like this:
                               2x
|-----------------------------|---------------------|
|-----------------------------|---------------------|
|-7-7-5-8-8-8-8-7-7-5-8-8-8-8-|-8-8-8-8-7-7-7-7-----| 
|-----------------------------|---------------------|

Chorus:

|---------------------------------|
|---------------------------------|
|---------3-3-3-3-5--5--5--5--5---| 
|-1-1-1-1-------------------------|

Then instrumental

|---| |----------------|
|---| |----------------|
|-3-| |-5-3--2--3-2-3--|
|---| |----------------|

Pre-chorus again

Real Chorus:
 3x
|-----------------| |---|
|-----------------| |---|
|---------3-3-3-3-| |-5-|
|-1-1-1-1---------| |---|

Real Chorus again (3x)

Outro thing:
|---------------| 
|---------------| 
|-5--0----------| 
|-------1--0----| 

Play the first line of the intro and end on a D.  Strange song.

Comments