Pearl Jam - Daughter Chords & Tabs

 

Daughter Chords & Tabs

Pearl Jam Chords & Tabs

Version: 2 Type: Tab 0 ratings
1 star 2 stars 3 stars 4 stars 5 stars
comments

Daughter Tab

   
-------------------------------------------------------------------------------
			     DAUGHTER - Pearl Jam
-------------------------------------------------------------------------------
Tabbed by: JAMES LARSEN

Email: JANSEN3000@HOTMAIL.COM

Tuning: The tuning is an open G, so bring the low E up to G, A down to G,
and the high e down to d

You are going to have to listen to the song for timing.

The opening lick is like this (when the symbols are being tapped):

d|----------------0----------------------------------------------------------|
B|------------0-----0--------------------------------------------------------|
G|----------0---------0------------------------------------------------------|
D|-----7---------------------------------------------------------------------|
G|---5-----------------------------------------------------------------------|
G|---------------------------------------------------------------------------|



The main riff is like this:


    
e|---0-0-0---0----0--0-0-----0-0-0---0----0--0-0----0-0-0---0----0--0-0---|
B|---0-0-0---0----0--0-0-----0-0-0---0----0--0-0----0-0-0---0----0--0-0---|
G|---0-0-0---0----0--0-0-----0-0-0---0----0--0-0----0-0-0---0----0--0-0---|
D|---0-0-0---7/9--7--9-9-----0-0-0---7/9--7--9-9----0-0-0---7/9--7--9-9---|
A|---0-0-0---5/7--5--7-7-----0-0-0---5/7--5--7-7----0-0-0---5/7--5--7-7---|
E|---0-0-0---0----0--0-0-----0-0-0---0----0--0-0----0-0-0---0----0--0-0---|


e|---0-0-0---0-0-----|
B|---0-0-0---0-0-----|
G|---0-0-0---0-0-----|
D|---7-7-7---7-7/9---|
A|---5-5-5---5-5/7---|
E|---0-0-0---0-0-----|


[ Tab from: http://www.guitartabs.cc/tabs/p/pearl_jam/daughter_tab_ver_2.html ]
That is obviously the majority of the song, but this is where I get fucked up.
I think this riff repeats until you hear the main lick kick in again:


"The shades go down inside her head...."

     
e|---0---0--0---0--0----0--0----------------------------------------------|
B|---0---0--0---0--0----0--0----------------------------------------------|
G|---0---0--0---0--0----0--0----------------------------------------------|
D|---12--12-12--12-12---11-9----------------------------------------------|
A|---0---0--0---0--0----0--0----------------------------------------------|
E|---0---0--0---0--0----0--0----------------------------------------------|



Right at the end (this repeats a few times)

e|---0---0----0----0----0---------------------------------------------------|
B|---0---0----0----0----0---------------------------------------------------|
G|---12--11---0----0----0---------------------------------------------------|
D|---0---0----12---11---9---------------------------------------------------|
A|---0---0----0----0----0---------------------------------------------------|
E|---0---0----0----0----0---------------------------------------------------|



And finally...

e|---------------------------------------------------------------------------|
B|---------------------------------------------------------------------------|
G|---------------------------------------------------------------------------|
D|---------------------------------------------------------------------------|
A|---------------------------------------------------------------------------|
E|----9h10--9h10--9h10 .......... you get the idea --------------------------|


| /  slide up
| \  slide down
| h  hammer-on
| p  pull-off
| ~  vibrato
| +  harmonic
| x  Mute note
Comments