Pearl Jam - Corduroy Chords & Tabs

 

Pearl Jam Chords & Tabs

Version: 1 Type: Tab 0 ratings
1 star 2 stars 3 stars 4 stars 5 stars
comments

Corduroy Tab

   
Author/Artist: pearl jam
Title: corduroy live
Transcribed by: Saverain
Email: saverain@hotmail.com

This is a live version of the song.  It is a little different but as an 
awesome sound.
v strum down 
^ strum up

intro

-|--------------------------------------------------------|-------------------
-|--------------------------------------------------------|-------------------
-|--------------------------------------------------------|-------------------
-|----9----9-------9----9-9---9-----9----9-------9----9-9-|-------------------
-|-7-----7-7--7--7-7--7-7---7-------7----7-------7----7-7-|-------------------
-|-------------------------------5-----5----8--8----8---8-|-------------------
   v  v  v ^  v  v ^  v ^ ^ v ^  v  v  v ^  v  v ^  v ^ v                     

-|--------------------------------|-------------------------------------------
-|--------------------------------|-------------------------------------------
-|--------------------------------|-------------------------------------------
-|-9-9-9-9-9-9-9-9--9-9-9-9-9-9-9-|-------------------------------------------
-|-7-7-7-7-7-7-7-7--7-7-7-7-7-7-7-|-------------------------------------------
-|-5-5-5-5-5-5-5-8--8-8-8-8-8-8---|-------------------------------------------
   v v v v v v v v  v v v v v v v                                             

-|--------------------------------|-------------------------------------------
-|----------------0--0-0--0-0-0-0-|-------------------------------------------
-|-10-10-10-10-9--4--4-4--4-4-4-4-|-------------------------------------------
-|-10-10-10-10-9--5--5-5--5-5-5-5-|-------------------------------------------
-|-8--8--8--8--7--5--5-5--5-5-5-5-|-------------------------------------------
-|-8--8--8--8--7--3--3-3--3-3-3-3-|-------------------------------------------
   V  ^  V  ^  ^  ^  ^ v  v ^ v ^                                             

-|----------------------3-----|-------|---------------------|-----------------
-|---------0--0-0-------0-0---|-------|---------0--0-0------|-----------------
-|-5-5-5-5-4--4-4--2-0------0-|-------|-5-5-5-5-4--4-4--2-0-|-----------------
-|-x-x-x-x-0--0-0--2-0--------|--4x---|-x-x-x-x-0--0-0--2-0-|-----------------
-|-3-3-3-3-2--2-2--0-x--------|-------|-3-3-3-3-2--2-2--0-x-|-----------------
-|-3-3-3-3-0--0-0----3--------|-------|-3-3-3-3-0--0-0----3-|-----------------
   v ^ V ^ v  v ^  ^ ^  ^ v ^                                                 

-|-----------------------------------------------------------|-------|--------
-|-----------------------------------------------------------|-------|--------
-|-----------------------------------------------------------|-------|--------
-|----9---9-------9----9-9---9-----9----9-------9--9-9-9-9-9-|-------|--------
-|-7----7-7--7--7-7--7-7---7-------7----7-------7--7-7-7-7-7-|-------|--------
-|------------------------------5-----5----8--8----8-8-8-8-8-|-------|--------
 interlude                                         ^ v ^ v ^  verse           

-|-3--3--3-2--3--3-3--3-2-2-3--3--3--3-2--3--3-3--3-2-2-3-|-------------------
-|-3--3--3-3--3--3-3--3-3-3-3--3--3--3-3--3--3-3--3-3-3-3-|-------------------
-|-0--0--0-0--0--0-0--0-0-0-0--0--0--0-0--0--0-0--0-0-0-0-|-------------------
-|-x--x--x-x--x--x-x--x-x-x-x--x--x--x-x--x--x-x--x-x-x-x-|-------------------
-|-2--2--2-2--2--2-2--2-2-2-2--3--3--3-3--3--3-3--3-3-3-3-|-------------------
-|-0---------------------------0--------------------------|-------------------
   v  v  v ^  v  ^ v  v ^ v ^  continue rythm                                 
===========Title: Corduroy
Artist: Pearl Jam
Album: Vitalogy
Transcribed by Graham Haworth

INTRO
                
e----------|----------|-----------|---------        play this
B----------|----------|-----------|---------       3 times,
G---4----4-|---4---4--|---4---4--|---4----4-     then below
D-2---2----|2----2----|-----------|---------     to end intro
A----------|-----------|-0--0-----|-0---0---      
E----------|-----------|-----------|--------          
[ Tab from: http://www.guitartabs.cc/tabs/p/pearl_jam/corduroy_tab.html ]
e----------|-----------|-----------|----------
B----------|-----------|-----------|----------
G---4---4--|---4---4---|---4---4--|---4----3--  
D-2---2----|-2---2-----|-----------|----------       
A----------|-----------|-0---0-----|-3---3---        
E-----------|-----------|-----------|--------         


VERSE -i'm not gonna type the words, just the chord progression. Its only
three chords
Chord Structure
Name       eadcgbe
F5            x810 10 xx
E5            x799xx
G              355433

Just repeat those chords through the verse. Make sure you strum all the way
through the barred G chord-it makes it sound better.

CHORUS- listen to the song to get the rhythm down. Change between Bm, A, and
G is pretty quick at first, but practice makes perfect!
Name        eadcgbe
C5            x355xx
Bm           x24432
A             x02220
G              355433

After the chorus, play the intro again, then the verse then the chorus again
until the bridge.
BRIDGE
Name     eadcgbe
Bm         x24432
C            x32010
          Bm
Everything has chains
        C                            <-------  play this pattern throughout
            
Absolutely nothings changed                bridge

Back to the CHORUS, then there's the little bass interlude, after which, you
play the intro again. The chords for the end are E5, A, C.
That's It!!!!! Email any comments to GuitarPJ17@aol.com


===


Corduroy
by Pearl Jam
from the Vitalogy cd
transcribed by kevin gardner
code@wam.umd.edu

intro riff
------------------------ ------------------------  
------------------------ ------------------------  |
------------------------ ------------------------  |
-----9---9------9---9--- -----9---9------9---9---  4X
-7-7---7----7-7---7----- -0-0---0----0-0---0-----  |
------------------------ ------------------------ /

------------- 
------------- 
------------- 
-9--(pound)--
-------------
-8-----------

verse 1

------------3--------------- 
------------3--------------- |
-10-10-9----0--------------- |
-10-10-9----0--(strum)------ 4x
-8--8--7----2--------------- |
------------3--------------- /

chorus 1

-0-0-0-0--0-0-0-----0--0----- 
-3-3-3-3--3-3-3--3--3----3--- |
-0-0-0-0--0-0-0--2--0------0- |
-0-0-0-0--0-0-0--2--0-------- 4x
-3-3-3-3--2-2-2--0--2-------- |
--------------------3-------- /

break 1

------------------------ ------------------------  
------------------------ ------------------------  |
------------------------ ------------------------  |
-----9---9------9---9--- -----9---9------9---9---  2X
-7-7---7----7-7---7----- -0-0---0----------------  |
------------------------ ------------8-8---8----- /

Verse 2 --->same as verse 1

chorus 2 --->play chorus 1 twice

interlude

-3-3-3-3-2--3-3-3-3-2- -3-3-3-3-2--3-3-3-3-2-
-3-3-3-3-3--3-3-3-3-3- -3-3-3-3-3--3-3-3-3-3-
-0-0-0-0-0--0-0-0-0-0- -0-0-0-0-0--0-0-0-0-0-
-0-0-0-0-0--0-0-0-0-0- -0-0-0-0-0--0-0-0-0-0-
-2-2-2-2-2--2-2-2-2-2- -3-3-3-3-3--3-3-3-3-3-
---------------------- ----------------------

this is done four times

chorus 3

-0-0-0-0--0-0-0-----0--0----- 
-3-3-3-3--3-3-3--3--3----3--- |
-0-0-0-0--0-0-0--2--0------0- |
-0-0-0-0--0-0-0--2--0-------- 5x
-3-3-3-3--2-2-2--0--2-------- |
--------------------3-------- /

-0-0-0-0--0-0-0----
-3-3-3-3--3-3-3--3-
-0-0-0-0--0-0-0--2-
-0-0-0-0--0-0-0--2-
-3-3-3-3--2-2-2--0-
-------------------

verse 3

------------3--------------- 
------------3--------------- |
-10-10-9----0--------------- |
-10-10-9----0--(strum)------ 4x
-8--8--7----2--------------- |
------------3--------------- /

-----------
-----------
-10-10-9---
-10-10-9---
-8--8--7---
-----------

outro
repeat this: while another guitar plays Em

------------------------ ------------------------  
------------------------ ------------------------  |
------------------------ ------------------------  |
-----9---9------9---9--- -----9---9------9---9---  X
-7-7---7----7-7---7----- -0-0---0----------------  |
------------------------ ------------8-8---8----- /
Comments