Pearl Jam - Brother Chords & Tabs

 

Brother Chords & Tabs

Pearl Jam Chords & Tabs

Version: 1 Type: Bass Tab 0 ratings
1 star 2 stars 3 stars 4 stars 5 stars
comments

Brother Bass Tab

Brother
Pearl Jam
Tabbed by Nick Key (nkey@ionet.net)

Intro/Chorus

Fig. 1 4x
|-------------------------------|
|-------------------------------| 
|-------------------------------|
|-4-44-4-44-4-4--0-00-0-00-0-0--|

Verse:
Fig. 1 - 8x: add the slide after every fourth time.
|----------| |----|
|----------| |----|
|----------| |----|
|--4--2-4--| |-//-|

Play verse 2x, then:

Pre-chorus:
4x
|---------------| 
|---------------| 
|---------------| 
|-2-22-2-22-00--| 

Second verse:

Play Fig. 1 8x, then this variation:
 Fig. 2 - 2x
|---------------------------| 
|---------------------------| 
|---------------------------| 
|--4--2-4/7-7-7--4--2-4\2-2-| 

Play pre-chorus eight (8) times, then chorus four (4) times.
[ Tab from: http://www.guitartabs.cc/tabs/p/pearl_jam/brother_btab.html ]
Then play this:
|------------------------|
|------------------------| 
|------------------------|
|-4-44-4-44-4-4--0-0-0---|







Slow part:
                            3x
|------------------------| |-------| |-/11----------------|
|---------/6-4------/6-4-| |-------| |--------------------|
|-4--2--2------2--2------| |-------| |--------------------|
|------------------------| |-4--/7-| |------4--/7--7-77-7-|

Solo:
It's really pretty different from this, but this works.

4x
|------------------------------------| |-------------------|
|------------------------------------| |-------------------|
|------------------------------------| |-------------------|
|--4-44-44-2-(4)/7-7--4-44-44-2-4-2--| |-4-44-44-2-(4)/7-7-|

Play pre-chorus three (3) times.

Play chorus nine (9) times (there's a fadeout during this).
Then end with this:

|--------| 
|--------| 
|--------| 
|-2-2/0--| 

Comments