Pearl Jam - Black Chords & Tabs

 

Black Chords & Tabs

Pearl Jam Chords & Tabs

Version: 2 Type: Bass Tab 0 ratings
1 star 2 stars 3 stars 4 stars 5 stars
comments

Black Bass Tab

   
#----------------------------------PLEASE NOTE---------------------------------#
#This file is the author's own work and represents their interpretation of the #
#song. You may only use this file for private study, scholarship, or research. #
#------------------------------------------------------------------------------##
From: PePPeRs0o@aol.com
Date: Sun, 19 Nov 1995 13:45:17 -0500
Subject: btab: Black by Pearl Jam

===================
Black
from the album Ten
by PePPeRs o0@aol.com
===================

intro                                                              
--21---------------
-----20\\----------
---------------------
---------------------

Verse E7                 A
---------------------------------------------------      
----------------------------------------------------   
-7----7--7\---------------4-4-4-5-5-6-6-----   
---0-----------5---5-5---------------------------    
[ Tab from: http://www.guitartabs.cc/tabs/p/pearl_jam/black_btab_ver_2.html ]
-------------------------------------------
--------------------------------------------
--7----7--7\------------------------------
-----0---------5-5h7p5--5---5--------

pre-chorus    C5                                                 
----------5-----------5-|-----5---------------------
-------------------------|----------------------------
----3------3-3-3-3---|-3---3-3-3-3-3-(3)/----
-------------------------|-----------------------------


Chorus
 E5                  G5                                                    
-----------------|-----------------------12~~~----
-----------------|--12h14---12h14---------------
-7--------------|--------------------------------------
----0----0-----|-------------------------------------
                               
 D5                                          E5
-----7----------------|-----5-----------------------|------------
-----------------------|-----------------------------|--------------
-5-----5-5-5-5\3---|-3---3--3--3/7---7------|-7-7-7-5---
-----------------------|------------------------0--0|-------------
from PePPeRs 0o@aol.com



Comments