Pearl Jam - Big Wave Chords & Tabs

 

Big Wave Chords & Tabs

Pearl Jam Chords & Tabs

Version: 1 Type: Tab

Big Wave Tab

-------------------------------------------------------------------------------
			     Big Wave - Band Name
-------------------------------------------------------------------------------
Tabbed by: Rob T
Email:

Tuning: Standard

So heres Big Wave its my second tabs as my follow up to Army Reserve. Enjoy

Intro/verse
e|---------------------------------------------------------------------------|
B|---------------------------------------------------------------------------|
G|--8------10----------------------------------------------------------------|
D|--8------10---10---8---10---------repeat 4x for intro----------------------|
A|--6-slide-8---10---8---10---------repeat 8x for verse----------------------|
E|--------------8----6---8---------------------------------------------------|" Use to 
crustation..."
[ Tab from: http://www.guitartabs.cc/tabs/p/pearl_jam/big_wave_tab.html ]
Chorus
e|---------------------------------------------------------------------------|
B|---------------------------------------------------------------------------|
G|--8--------10--------------------------------------------------------------|
D|--8--x5---10---x5--------then repeat verse with end variation--------------|
A|--6-------8----------------------------------------------------------------|
E|---------------------------------------------------------------------------|"Got me a 
wave..."

End Variation
e|---------------------------------------------------------------------------|
B|---------------------------------------------------------------------------|
G|-888---------10------------------------------------------------------------|
D|-888---slide-10----10-8---10-----------------------------------------------|
A|-666---------8----10--8---10-----------------------------------------------|
E|------------------8---6---8------------------------------------------------|

Bridge and Ending
e|---------------------------------------------------------------------------|
B|---------------------------------------------------------------------------|
G|-8---10--------------------------------------------------------------------|
D|-8---10---10-----------repeat 3x-------------------------------------------|
A|-6---8---10----------------------------------------------------------------|
E|---------8-----------------------------------------------------------------|Bridge-"I 
the need planted..."   Ending- "Got me a ride..."


Enjoy