Pearl Jam - Better Man Chords & Tabs

 

Better Man Chords & Tabs

Pearl Jam Chords & Tabs

Version: 3 Type: Bass Tab 0 ratings
1 star 2 stars 3 stars 4 stars 5 stars
comments

Better Man Bass Tab

Artist:Pearl Jam
Song:Betterman
Album:Vitalogy
Tabbed By:Gary Hricewich
E-mail:snapper2001@msn.com

INTRO:No Bass 8x
VERSE 1:No Bass 13x
[ Tab from: http://www.guitartabs.cc/tabs/p/pearl_jam/better_man_btab_ver_3.html ]
                                                                               
    Chorus1     3x
G---|----|--------|--------|---|---|-------------|-------------|--------------|
D---|*---|-------*|--------|-7-|(7)|-------------|-------------|--------------|
A---|*-5-|-------*|-5--5-5-|---|---|-5-5-5-5-5-5-|-7-7-7-7-7-7-|-10-10-10--10-|
E---|----|-5--3---|--------|---|---|-------------|-------------|--------------|
                                                                               
 VERSE 2:No Bass 11x
                                                                            
                                                                    
                   Band Comes In
G-----------------|---------------|---------------|----------------|
D-----------------|---------------|---------------|----------------|
A---7-7-7-7-7-7-7-|-5--5-5--5-5-5-|-5--5-5--5-5-5-|-7-7-7-7--7-7-7-|
E-----------------|---------------|---------------|----------------|
                                                                    
                                                                      
   
G-------------------|-------------|------------------|---------------|
D-------------------|-------------|------------------|---------------|
A---7-7-7-7-7-7-7-7-|-8--8--8-8-8-|-10--10--10-10-10-|-8--8-8--8-8-8-|
E-------------------|-------------|------------------|---------------|
                                                                      
                                                       
    
G---------------------------|-------------------------|
D---------------------------|-------------------------|
A---10-10-10-10-10-10-10-10-|-10-10-10-10-10-10-10-10-|
E---------------------------|-------------------------|
                                                       
                                  7x                                      
    Chorus 2             End Chorus 2
G---|--------------|-----------------|-----------------------|---------|
D---|*-------------|----------------*|-------------7-7-7-----|-7--7--7-|
A---|*-5--5--5-5-5-|----------------*|-5--5--5-5-5-------0-0-|---------|
E---|--------------|-5-5-5-3--3-3-3--|-----------------------|---------|
                                                                        
                                                             
    
G--------------|---------------|-------------|--------------|
D--------------|---------------|-7---7---7---|-7---7--7-7-7-|
A---5--5-5-5-5-|-5--5-5--5-5-5-|---0---0---0-|---0----------|
E--------------|---------------|-------------|--------------|
                                                             
                                                              
   
G-----------|---------|------------------|-------------------|
D-----------|---------|------------------|-------------------|
A-----------|---------|-10--10--10-10-10-|-10-10-9-9-7-7-6-6-|
E---3--3--3-|-3--3--3-|------------------|-------------------|
                                                              
    Outro [Same As Chorus 2] 19x                                                          
                                                             
                
    
G--------------|
D--------7/-12-|
A---5/9--------|
E--------------|
Comments