Pearl Jam - Believe You Me Chords & Tabs

 

Believe You Me Chords & Tabs

Pearl Jam Chords & Tabs

Version: 1 Type: Bass Tab 0 ratings
1 star 2 stars 3 stars 4 stars 5 stars
comments

Believe You Me Bass Tab

Believe you Me
Pearl Jam
Tabbed by Nick Key (nkey@ionet.net)

standard tuning.

intro:

Repeat until drum fill
-----|-------------------|
-----|-------------------|  
-----|--------0-3--0-3---| 
--//-|-3--0-3----------0-|

Verse:
Repeat until "I don't want to..."
----------------------------|
----------------------------|  
---------------0-3-3-0-3-3--|
----3-3-0-3-3---------------| 
   

Chorus:
2x                                             
---------------------------| |--------------|
---------------------------| |--------------| 
--0-0-0-3-3----------------| |--0-0-0-3-3---|
------------0-3-3-0-3-3-0--| |------------0-|
[ Tab from: http://www.guitartabs.cc/tabs/p/pearl_jam/believe_you_me_btab.html ]
Play verse until drum fill.

Fast Part:
2x                      2x
|---------------------| |----------------------|
|---------------------| |----------------------|  
|---------------------| |-0-33-0-33-0-33-0-33--|
|-0-33-0-33-0-33-0-33-| |----------------------| 

Play that whole thing (Fig. 1) 4 times through, then:

Play verse until end

2x                        2x
|-----------------------| |-4---4---4---4------|
|-----------------------| |---4---4---4---4----|  
|-----------------------| |--------------------|
|---0-33-0-33-0-33-0-33-| |--------------------|

Play that whole thing 2 times, then play figure 1 4 more times.
Play verse until end.  End on G

Comments