Pearl Jam - Baba Oriley Chords & Tabs

 

Baba Oriley Chords & Tabs

Pearl Jam Chords & Tabs

Version: 1 Type: Tab 0 ratings
1 star 2 stars 3 stars 4 stars 5 stars
comments

Baba Oriley Tab

   
Reece
www.atax_51@yahoo.com
Pearl Jam
Baba O' Riley (LIVE) Las Vegas
Remember my live version maybe different than your or your studio version
Tuning one guitar in standard one in Eb tuning (half-step down)

E---------
B---------
G-----99--    (standard guitar)
D---99--99
A-77------
E---------
PM........
INTRO

G-----------
D----------- (standard bass)
A-7---------
E-----7----5
BASS

E----------            E----------
B----------            B----------
G-----4---2            G-----5---3
D-2---4---2 (standard) D-3---5---3  (Eb)
A-2---2---0            A-3---3---1
E-0--------            E-1--------
                                     
E-12--12----(  h  )12---14b-12-14b-12-12-14-12---(  h   )------
B---------12-12-14----------------------------12-12-14-12-12-12
G--------------------------------------------------------------
D--------------------------------------------------------------  (Standard)
A--------------------------------------------------------------
E--------------------------------------------------------------

E----------------
B----------------
G-4-4-2-2-----2-2
D-4-4-2-2-2-2-0-0  (Standard)
A-2-2-0-0-2-2-0-0
E---------0-0----
[ Tab from: http://www.guitartabs.cc/tabs/p/pearl_jam/baba_oriley_tab.html ]
E-12--13--15--12--13--15--12-13-15
B---------------------------------
G---------------------------------
D---------------------------------  4x  (Eb)
A---------------------------------
E---------------------------------
    h     h     h     h     h     h
E-12-13-12-13-12-13-12-13-12-13-12-13-12---
B----------------------------------------13
G------------------------------------------
D------------------------------------------  (Eb)
A------------------------------------------
E------------------------------------------
    h     h     h     h     h     h  
E-12-13-12-13-12-13-12-13-12-13-12-13-15---
B----------------------------------------13
G------------------------------------------
D------------------------------------------  (Eb)
A------------------------------------------
E------------------------------------------
                               h           h 
E-121312131213121312-1212121212-13-12121212-13
B---------------------------------------------
G---------------------------------------------
D---------------------------------------------  (Eb)
A---------------------------------------------
E---------------------------------------------

E-15151515151515151515-1212121212121212121212-
B---------------------------------------------
G---------------------------------------------
D---------------------------------------------  (Eb)
A---------------------------------------------
E---------------------------------------------
          (11)        h     h
E-12121212121212121212-14-12-14---------------
B-------------------------------14141414141414
G---------------------------------------------
D---------------------------------------------  (Eb)
A---------------------------------------------
E---------------------------------------------

E-151515151515151515-131313-121212------121212
B---------------------------------151515------
G---------------------------------------------
D---------------------------------------------  (Eb)
A---------------------------------------------
E---------------------------------------------

E-121212-131313-151515-161616-181818-202020---
B---------------------------------------------
G---------------------------------------------
D--------------------------------------------2  (Eb)
A--------------------------------------------2
E--------------------------------------------0


Sorry if u find an clearly wrong note dont have to check any errors
:)
Comments