Pearl Jam - Army Reserve Chords & Tabs

 

Pearl Jam Chords & Tabs

Version: 2 Type: Tab 0 ratings
1 star 2 stars 3 stars 4 stars 5 stars
comments

Army Reserve Tab

   
Artist: Pearl Jam
Title: Army Reserve
Album: Pearl Jam
Transcribed by: allstar340

STANDARD TUNING
E-A-D-G-B-E

-|----------------------------------------------------------------------------|
-|----------------------------------------------------------------------------|
-|--9--9-9-9-9-9--9-9-9-9-9--9-9-9-9-9---9-9-9-9-9--9-9-9-9-9------6-6-6-6-6--|
-|--9--9-9-9-9-9--9-9-9-9-9--9-9-9-9-9---9-9-9-9-9--9-9-9-9-9------7-7-7-7-7--|
-|--7--x-x-x-x-x--x-x-x-x-x--x-x-x-x-x---x-x-x-x-x--x-x-x-x-x------x-x-x-x-x--|
-|-------7-7-7-7--7-7-7-7-7--7-7-7-7-7---7-7-7-7-7--7-7-7-7-7--0---5-5-5-5-5--|

G1                          Enter drums/bass

-|----------------------------------------------------------------------------|
-|--7--7-7-7-7-7--7-7-7-7-7--7-7-7-7-7---7-7-7-7-7--7-7-7-7-7------5-5-5-5-5--|
-|--7--7-7-7-7-7--7-7-7-7-7--7-7-7-7-7---7-7-7-7-7--7-7-7-7-7------6-6-6-6-6--|
-|--9--9-9-9-9-9--9-9-9-9-9--9-9-9-9-9---9-9-9-9-9--9-9-9-9-9------7-7-7-7-7--|
-|----------------------------------------------------------------------------|
-|----------------------------------------------------------------------------|

 G2                          Enter drums/bass

-|--------------------------------------------------------12-12-12-10-10------|
-|----------------------------------------------------------------------------|
-|----------------------------------------------------------------------------|
-|----------------------------------------------------------------------------|
-|----------------------------------------------------------------------------|
-|----------------------------------------------------------------------------|
   G3

-|----------------------------------------------------------------------------|
-|----------------------------------------------------------------------------|
-|---6-6-6-6-6----6--6---6-6-----9-9-9-9-9---9-9-9-9-9-------4-----4----------|
-|---7-7-7-7-7----7--7---7-7-----9-9-9-9-9---9-9-9-9-9-------5-----5----------|
-|---x-x-x-x-x----x--x---x-x-----x-x-x-x-x---x-x-x-x-x-------x-----x----------|
-|---5-5-5-5-5----5--5---5-5-----7-7-7-7-7---7-7-7-7-7---5---3-----3----------|

G1                                                                 How

-|----------------------------------------------------------------------------|
-|---5-5-5-5-5----5--5---5-5-----7-7-7-7-7---7-7-7-7-7-------6-----6----------|
-|---6-6-6-6-6----6--6---6-6-----7-7-7-7-7---7-7-7-7-7-------7-----7----------|
-|---7-7-7-7-7----7--7---7-7-----9-9-9-9-9---9-9-9-9-9-------5-----5----------|
-|----------------------------------------------------------------------------|
-|----------------------------------------------------------------------------|

G2                                                                 How

-|----------------------------------------------------------------------------|
-|-------------------------------------------------10-10h12v------------------|
-|----------------------------------------------------------------------------|
-|----------------------------------------------------------------------------|
-|----------------------------------------------------------------------------|
-|----------------------------------------------------------------------------|
   G3

-|----------------------------------------------------------------------------|
-|----------------------------------------------------------------------------|
-|-9-9-9-9-9--9-9-9-9-9---6-6-6-6-6--6-6-6-6-6--4-4-4-4-4---4-4-4-4-4---------|
-|-9-9-9-9-9--9-9-9-9-9---7-7-7-7-7--7-7-7-7-7--5-5-5-5-5---5-5-5-5-5---------|
-|-x-x-x-x-x--x-x-x-x-x---x-x-x-x-x--x-x-x-x-x--x-x-x-x-x---x-x-x-x-x---------|
-|-7-7-7-7-7--7-7-7-7-7---5-5-5-5-5--5-5-5-5-5--3-3-3-3-3---3-3-3-3-3---------|

long          must  she stand                               before the

-|----------------------------------------------------------------------------|
-|-7-7-7-7-7--7-7-7-7-7---5-5-5-5-5--5-5-5-5-5--6-6-6-6-6---6-6-6-6-6---------|
-|-7-7-7-7-7--7-7-7-7-7---6-6-6-6-6--6-6-6-6-6--7-7-7-7-7---7-7-7-7-7---------|
-|-9-9-9-9-9--9-9-9-9-9---7-7-7-7-7--7-7-7-7-7--5-5-5-5-5---5-5-5-5-5---------|
-|----------------------------------------------------------------------------|
-|----------------------------------------------------------------------------|

G2            must  she stand                               before the

-|----------------12-12-12-10-------------------------------------------------|
-|----------------------------12v---------------------------------------------|
-|----------------------------------------------------------------------------|
-|----------------------------------------------------------------------------|
-|----------------------------------------------------------------------------|
-|----------------------------------------------------------------------------|
   G3

-|----------------------------------------------------------------------------|
-|----------------------------------------------------------------------------|
-|--4-4-4-4-4--4-4-4-4-4----6----9-9-9-9-9--9-9-9-9-9--9-9-9-9---6-6-6-6-6----|
-|--5-5-5-5-5--5-5-5-5-5----7----9-9-9-9-9--9-9-9-9-9--9-9-9-9---7-7-7-7-7----|
-|--x-x-x-x-x--x-x-x-x-x----x----x-x-x-x-x--x-x-x-x-x--x-x-x-x---x-x-x-x-x----|
-|--3-3-3-3-3--3-3-3-3-3----5----7-7-7-7-7--7-7-7-7-7--7-7-7-7---5-5-5-5-5----|

 ground, it gives way                    to an  endless        fall

-|----------------------------------------------------------------------------|
-|--6-6-6-6-6--6-6-6-6-6----5----7-7-7-7-7--7-7-7-7-7--7-7-7-7---5-5-5-5-5----|
-|--7-7-7-7-7--7-7-7-7-7----6----7-7-7-7-7--7-7-7-7-7--7-7-7-7---6-6-6-6-6----|
-|--5-5-5-5-5--5-5-5-5-5----7----9-9-9-9-9--9-9-9-9-9--9-9-9-9---7-7-7-7-7----|
-|----------------------------------------------------------------------------|
-|----------------------------------------------------------------------------|

 G2      it gives way                    to an  endless        fall

-|------------------------------12--14----------------------------------------|
-|----------------------------------------------------------------------------|
-|---------------------------------------------------------------------11--9--|
-|----------------------------------------------------------------------------|
-|----------------------------------------------------------------------------|
-|----------------------------------------------------------------------------|
   G3

-|----------------------------------------------------------------------------|
-|----------------------------------------------------------------------------|
-|-6-6-6-6-6--6-6---9-9-9-9-9--9-9-9-9-9--9---4-4-4-4-4--4-4-4-4-4--6-9-9-9-9-|
-|-7-7-7-7-7--7-7---9-9-9-9-9--9-9-9-9-9--9---5-5-5-5-5--5-5-5-5-5--7-9-9-9-9-|
-|-x-x-x-x-x--x-x---x-x-x-x-x--x-x-x-x-x--x---x-x-x-x-x--x-x-x-x-x--x-x-x-x-x-|
-|-5-5-5-5-5--5-5---7-7-7-7-7--7-7-7-7-7--7---3-3-3-3-3--3-3-3-3-3--5-7-7-7-7-|

she can feel this war     on her face              stars

-|----------------------------------------------------------------------------|
-|-5-5-5-5-5--5-5---7-7-7-7-7--7-7-7-7-7--7---6-6-6-6-6--6-6-6-6-6--5-7-7-7-7-|
-|-6-6-6-6-6--6-6---7-7-7-7-7--7-7-7-7-7--7---7-7-7-7-7--7-7-7-7-7--6-7-7-7-7-|
-|-7-7-7-7-7--7-7---9-9-9-9-9--9-9-9-9-9--9---5-5-5-5-5--5-5-5-5-5--7-9-9-9-9-|
-|----------------------------------------------------------------------------|
-|----------------------------------------------------------------------------|

 G2               she can feel this war     on her face              stars

-|-------------------------------------------------------------10-10----------|
-|--------------------------------------------------------------------12------|
-|--11--9---------------------------------------------------------------------|
-|----------------------------------------------------------------------------|
-|----------------------------------------------------------------------------|
-|----------------------------------------------------------------------------|
   G3

-|----------------------------------------------------------------------------|
-|----------------------------------------------------------------------------|
-|-9--9-9-9-9--9-9--6--6-6-6-6--6-6-6-6--6--4-4-4-4-4--4-4-4-4-4--4-4-4-4-4---|
-|-9--9-9-9-9--9-9--7--7-7-7-7--7-7-7-7--7--5-5-5-5-5--5-5-5-5-5--5-5-5-5-5---|
-|-x--x-x-x-x--x-x--x--x-x-x-x--x-x-x-x--x--x-x-x-x-x--x-x-x-x-x--x-x-x-x-x---|
-|-7--7-7-7-7--7-7--5--5-5-5-5--5-5-5-5--5--3-3-3-3-3--3-3-3-3-3--3-3-3-3-3---|

on   her        pillow            she's folding in darkness begging for

-|----------------------------------------------------------------------------|
-|-7--7-7-7-7--7-7--5--5-5-5-5--5-5-5-5--5--6-6-6-6-6--6-6-6-6-6--6-6-6-6-6---|
-|-7--7-7-7-7--7-7--6--6-6-6-6--6-6-6-6--6--7-7-7-7-7--7-7-7-7-7--7-7-7-7-7---|
-|-9--9-9-9-9--9-9--7--7-7-7-7--7-7-7-7--7--5-5-5-5-5--5-5-5-5-5--5-5-5-5-5---|
-|----------------------------------------------------------------------------|
-|----------------------------------------------------------------------------|
   G2

-|----------------------------------------------------------------------------|
-|----------------------------10-10-10--10-10h12------------------------------|
-|----------------------------------------------------------------------------|
-|----------------------------------------------------------------------------|
-|----------------------------------------------------------------------------|
-|----------------------------------------------------------------------------|
   G3

-|----------|-----------------------------------------------------------------|
-|----------|-----------------------------------------------------------------|
-|---4-4----|-------9---10----------12----------------------------------------|
-|---5-5----|--12---9---10----------12---------12---------12----9----10-------|
-|---x-x----|--12---7----8----------10---9-----12---------12----7-----8-------|
-|---3-3----|--10------------------------------10---10-10-10------------------|

slumber     I'm not blind  I can see it coming.       Looks like lightning

-|----------|-----------------------------------------------------------------|
-|---6-6----|-----------------------------------------------------------------|
-|---7-7----|--7----9---10---10--10-12---------7-----------7----9----10-------|
-|---5-5----|--0----x----x----x---x--x---------0----0--0---0----x-----x-------|
-|----------|--5----7----8----8---8-10---------5----5--5---5----7-----8-------|
-|----------|-----------------------------------------------------------------|

G2          I'm not blind  I can see it coming.      Looks like lightning

-|----------|------------------------------------------------------------------|
-|----------|------------------------------------------------------------------|
-|----------|--7----9---10----------12--11-12-12p117------7----9-----10--------|
-|----------|------------------------------------------------------------------|
-|----------|------------------------------------------------------------------|
-|----------|------------------------------------------------------------------|
   G3

-|----------------------------------------------------------------------------|
-|----------------------------------------------------------------------------|
-|--12--------------------------------------12--------------------------------|
-|--12---------12------12---9---10----------12-------12-----12----9----10-----|
-|--10---------12------12---7----8----------10-------12-----12----7-----8-----|
-|-------------10------10----------------------------10-----10----------------|

in my child's eye. I'm not frantic, I can feel it coming. Violently shakes

-|----------------------------------------------------------------------------|
-|----------------------------------------------------------------------------|
-|--12---------7-------7----9---10---------12--------7------7-----9----10-----|
-|---x---------0---0---0----x---x----------x---------0--0---0-----x----x------|
-|--10---------5---5---5----7---8---8-8----10--------5--5---5-----7----8------|
-|----------------------------------------------------------------------------|
   G2

-|-----------------------------------------------------------------------------|
-|-----------------------------------------------------------------------------|
-|--12---11-12-11------7----9---10---------12-11-12-12p117-7-----9----10-------|
-|-----------------------------------------------------------------------------|
-|-----------------------------------------------------------------------------|
-|-----------------------------------------------------------------------------|
   G3

-|----------|-----------------------------------------------------------------|
-|----------|-----------------------------------------------------------------|
-|---12-----|--9--9-9---9-9-9-9----9--9-9--9-9-9-9---9-9-9-9-9--9-9-9-9-9-----|
-|---12-----|--9--9-9---9-9-9-9----9--9-9--9-9-9-9---9-9-9-9-9--9-9-9-9-9-----|
-|---10-----|--x--x-x---x-x-x-x----x--x-x--x-x-x-x---x-x-x-x-x--x-x-x-x-x-----|
-|----------|--7--7-7---7-7-7-7----7--7-7--7-7-7-7---7-7-7-7-7--7-7-7-7-7-----|

my body                                                Her son's

-|----------|-----------------------------------------------------------------|
-|----------|--7--7-7---7-7-7-7----7--7-7--7-7-7-7---7-7-7-7-7--7-7-7-7-7-----|
-|---12-----|--7--7-7---7-7-7-7----7--7-7--7-7-7-7---7-7-7-7-7--7-7-7-7-7-----|
-|---x------|--9--9-9---9-9-9-9----9--9-9--9-9-9-9---9-9-9-9-9--9-9-9-9-9-----|
-|---10-----|-----------------------------------------------------------------|
-|----------|-----------------------------------------------------------------|

G2                                                     Her son's

-|----------|-----------------------------------------------------------------|
-|----------|-----------------------------------------------------------------|
-|---12-----|--11-------------------------------------------------------------|
-|----------|-----------------------------------------------------------------|
-|----------|-----------------------------------------------------------------|
-|----------|-----------------------------------------------------------------|
   G3

-|----------------------------------------------------------------------------|
-|----------------------------------------------------------------------------|
-|--6-6-6-6-6--6-6-6-6---9-9-9-9-9--9-9-9-9-9----4-4-4-4-4--4-4-4-4-4---6-----|
-|--7-7-7-7-7--7-7-7-7---9-9-9-9-9--9-9-9-9-9----5-5-5-5-5--5-5-5-5-5---7-----|
-|--x-x-x-x-x--x-x-x-x---x-x-x-x-x--x-x-x-x-x----x-x-x-x-x--x-x-x-x-x---x-----|
-|--5-5-5-5-5--5-5-5-5---7-7-7-7-7--7-7-7-7-7----3-3-3-3-3--3-3-3-3-3---5-----|

slanted                   Always giving her  the sideways eye
[ Tab from: http://www.guitartabs.cc/tabs/p/pearl_jam/army_reserve_tab_ver_2.html ]
-|----------------------------------------------------------------------------|
-|--5-5-5-5-5--5-5-5-5---7-7-7-7-7--7-7-7-7-7----6-6-6-6-6--6-6-6-6-6---5-----|
-|--6-6-6-6-6--6-6-6-6---7-7-7-7-7--7-7-7-7-7----7-7-7-7-7--7-7-7-7-7---6-----|
-|--7-7-7-7-7--7-7-7-7---9-9-9-9-9--9-9-9-9-9----5-5-5-5-5--5-5-5-5-5---7-----|
-|----------------------------------------------------------------------------|
-|----------------------------------------------------------------------------|

G2                         Always giving her  the sideways eye

-|---------10-10-12-10----10--------------------------------------------------|
-|---------------------12----12--------------------------10-------------------|
-|-----------------------------------------------------------------12-12-12---|
-|----------------------------------------------------------------------------|
-|----------------------------------------------------------------------------|
-|----------------------------------------------------------------------------|
   G3

-|----------------------------------------------------------------------------|
-|----------------------------------------------------------------------------|
-|--9-9-9-9-9--9-9-9-9-9--9-9--6-6-6-6-6--6-6-6-6---4-4-4-4---4-4-4-4-4--4-4--|
-|--9-9-9-9-9--9-9-9-9-9--9-9--7-7-7-7-7--7-7-7-7---5-5-5-5---5-5-5-5-5--5-5--|
-|--x-x-x-x-x--x-x-x-x-x--x-x--x-x-x-x-x--x-x-x-x---x-x-x-x---x-x-x-x-x--x-x--|
-|--7-7-7-7-7--7-7-7-7-7--7-7--5-5-5-5-5--5-5-5-5---3-3-3-3---3-3-3-3-3--3-3--|

 an empty chair where dad   sits                   how loud can silence

-|----------------------------------------------------------------------------|
-|--7-7-7-7-7--7-7-7-7-7--7-7--5-5-5-5-5--5-5-5-5---6-6-6-6---6-6-6-6-6--6-6--|
-|--7-7-7-7-7--7-7-7-7-7--7-7--6-6-6-6-6--6-6-6-6---7-7-7-7---7-7-7-7-7--7-7--|
-|--9-9-9-9-9--9-9-9-9-9--9-9--7-7-7-7-7--7-7-7-7---5-5-5-5---5-5-5-5-5--5-5--|
-|----------------------------------------------------------------------------|
-|----------------------------------------------------------------------------|

G2  empty chair where dad  sits                    how loud can silence

-|----------------------------------------------------------------------------|
-|----------------------------------------------------------------------------|
-|--11-9-----/12-12-12-11-9---------------------------------------------------|
-|----------------------------------------------------------------------------|
-|----------------------------------------------------------------------------|
-|----------------------------------------------------------------------------|
   G3

-|----------------------------------------------------------------------------|
-|----------------------------------------------------------------------------|
-|-4--4-4---6---9-9-9-9-9--9-9-9-9-9--9--6-6-6-6-6--6-6-6-6-6--9-9-9-9-9--9-9-|
-|-5--5-5---7---9-9-9-9-9--9-9-9-9-9--9--7-7-7-7-7--7-7-7-7-7--9-9-9-9-9--9-9-|
-|-x--x-x---x---x-x-x-x-x--x-x-x-x-x--x--x-x-x-x-x--x-x-x-x-x--x-x-x-x-x--x-x-|
-|-3--3-3---5---7-7-7-7-7--7-7-7-7-7--7--5-5-5-5-5--5-5-5-5-5--7-7-7-7-7--7-7-|

get?               And mom, she reassures             to  contain him

-|----------------------------------------------------------------------------|
-|-6--6-6---5---7-7-7-7-7--7-7-7-7-7--7--5-5-5-5-5--5-5-5-5-5--7-7-7-7-7--7-7-|
-|-7--7-7---6---7-7-7-7-7--7-7-7-7-7--7--6-6-6-6-6--6-6-6-6-6--7-7-7-7-7--7-7-|
-|-5--5-5---7---9-9-9-9-9--9-9-9-9-9--9--7-7-7-7-7--7-7-7-7-7--9-9-9-9-9--9-9-|
-|----------------------------------------------------------------------------|
-|----------------------------------------------------------------------------|

G2                   And mom, she reassures             to contain him

-|----------------------------------------------------------------------------|
-|----------------------------------------------------------------------------|
-|--9--9-9-9-9-9--4-4--4-4-4-4-4--4-4-6--9-9-9-9-9--9-9-9-9-9---6-6-6-6-6-----|
-|--9--9-9-9-9-9--5-5--5-5-5-5-5--5-5-7--9-9-9-9-9--9-9-9-9-9---7-7-7-7-7-----|
-|--x--x-x-x-x-x--x-x--x-x-x-x-x--x-x-x--x-x-x-x-x--x-x-x-x-x---x-x-x-x-x-----|
-|--7--7-7-7-7-7--3-3--3-3-3-3-3--3-3-5--7-7-7-7-7--7-7-7-7-7---5-5-5-5-5-----|

but it's  becoming a lie              she tells herself    and anyone

-|----------------------------------------------------------------------------|
-|--7--7-7-7-7-7--6-6--6-6-6-6-6--6-6-5--7-7-7-7-7--7-7-7-7-7---5-5-5-5-5-----|
-|--7--7-7-7-7-7--7-7--7-7-7-7-7--7-7-6--7-7-7-7-7--7-7-7-7-7---6-6-6-6-6-----|
-|--9--9-9-9-9-9--5-5--5-5-5-5-5--5-5-7--9-9-9-9-9--9-9-9-9-9---7-7-7-7-7-----|
-|----------------------------------------------------------------------------|
-|----------------------------------------------------------------------------|

G2  it's  becoming a lie              she tells herself    and anyone

-|--------------------------------------------------------------10-10---------|
-|---------------------------------------------------------------------12-----|
-|----------------------------------------------------------------------------|
-|----------------------------------------------------------------------------|
-|----------------------------------------------------------------------------|
-|----------------------------------------------------------------------------|
   G3

-|-------------------------------------------------------|--------------------|
-|-------------------------------------------------------|--------------------|
-|---6-6-6-6--4-4-4-4-4--4-4-4-4-4---4-4-4-4-4--4-4-4-4--|--------------------|
-|---7-7-7-7--5-5-5-5-5--5-5-5-5-5---5-5-5-5-5--5-5-5-5--|--12---9---10-------|
-|---x-x-x-x--x-x-x-x-x--x-x-x-x-x---x-x-x-x-x--x-x-x-x--|--12---7----8-------|
-|---5-5-5-5--3-3-3-3-3--3-3-3-3-3---3-3-3-3-3--3-3-3-3--|--10----------------|

else      Father is risking his life for our freedoms    I'm not blind, I

-|-------------------------------------------------------|--------------------|
-|---5-5-5-5--6-6-6-6-6--6-6-6-6-6---6-6-6-6-6--6-6-6-6--|--------------------|
-|---6-6-6-6--7-7-7-7-7--7-7-7-7-7---7-7-7-7-7--7-7-7-7--|---7---9---10-------|
-|---7-7-7-7--5-5-5-5-5--5-5-5-5-5---5-5-5-5-5--5-5-5-5--|---0---x----x-------|
-|-------------------------------------------------------|---5---7----8-------|
-|-------------------------------------------------------|--------------------|

G2        Father is risking his life for our freedoms    I'm not blind, I

-|-------------------------------------------------------|--------------------|
-|--------8----8---------8-10----------------------------|--------------------|
-|-------------------------------------------------------|---7---9---10-------|
-|-------------------------------------------------------|--------------------|
-|-------------------------------------------------------|--------------------|
-|-------------------------------------------------------|--------------------|
   G3

-|----------------------------------------------------------------------------|
-|----------------------------------------------------------------------------|
-|----12----------------------------------12----------------------------------|
-|----12--------12----12----9---10--------12--------12-------12----9----------|
-|----10--------12----12----7----8--------10--------12-------12----7----------|
-|--------------10----10----------------------------10-------10---------------|

can see it coming. Looks like lightning in my child's eye. I'm not

-|----------------------------------------------------------------------------|
-|----------------------------------------------------------------------------|
-|----12---------7-----7----9---10--------12---------7--------7----9----------|
-|----x----------0--0--0----x---x---------x----------0--------0----x----------|
-|----10---------5--5--5----7---8---------10---------5--5-5---5----7----------|
-|----------------------------------------------------------------------------|

 G2  see it coming. Looks like lightning in my child's eye. I'm not

-|----------------------------------------------------------------------------|
-|----------------------------------------------------------------------------|
-|----12--11-12-12p11-7-7---9---10--------12-11-12-12-11-7----7----9----------|
-|----------------------------------------------------------------------------|
-|----------------------------------------------------------------------------|
-|----------------------------------------------------------------------------|
   G3

-|----------------------------------------------------------------------------|
-|----------------------------------------------------------------------------|
-|----------------12------------------------------------------12--------------|
-|--10------------12-------12------12-----9-----10------------12--------------|
-|---8------------10-------12------12-----7------8------------10--------------|
-|-------------------------10------10-----------------------------------------|

frantic, I can feel it coming. Darling you'll save me if you save

-|----------------------------------------------------------------------------|
-|----------------------------------------------------------------------------|
-|--10------------12--------7-------7-----9-----10------------12--------------|
-|--x-------------x---------0-------0-----x-----x-------------x---------------|
-|--8-------------10--------5--5-5--5-----7-----8-------------10--------------|
-|----------------------------------------------------------------------------|

G2       I can feel it coming. Darling you'll save me if you save

-|----------------------------------------------------------------------------|
-|----------------------------------------------------------------------------|
-|--10------------12-11-12-11-7------7----9-----10------------12--------------|
-|----------------------------------------------------------------------------|
-|----------------------------------------------------------------------------|
-|----------------------------------------------------------------------------|
   G3

-|------------|---------------------------------------------------------------|
-|------------|---------------------------------------------------------------|
-|------------|--9-9-9-9-9--9-9-9-9-9--9-9-9-9-9--9-9-9-9-9-9--9-9-9-9-9-9-9--|
-|---12-------|--9-9-9-9-9--9-9-9-9-9--9-9-9-9-9--9-9-9-9-9-9--9-9-9-9-9-9-9--|
-|---12-------|--x-x-x-x-x--x-x-x-x-x--x-x-x-x-x--x-x-x-x-x-x--x-x-x-x-x-x-x--|
-|---10-------|--7-7-7-7-7--7-7-7-7-7--7-7-7-7-7--7-7-7-7-7-7--7-7-7-7-7-7-7--|

yourself.   G1                                         Repeat until End

-|------------|---------------------------------------------------------------|
-|------------|--7-7-7-7-7--7-7-7-7-7--7-7-7-7-7--7-7-7-7-7-7--7-7-7-7-7-7-7--|
-|----7-------|--7-7-7-7-7--7-7-7-7-7--7-7-7-7-7--7-7-7-7-7-7--7-7-7-7-7-7-7--|
-|----0-------|--9-9-9-9-9--9-9-9-9-9--9-9-9-9-9--9-9-9-9-9-9--9-9-9-9-9-9-9--|
-|----5-------|---------------------------------------------------------------|
-|------------|---------------------------------------------------------------|

G2           G2                                         Repeat until End

-|------------|---------------------------------------------------------------|
-|------------|---------------------------------------------------------------|
-|-11-12--11--|----------------12-12--12-12---12-11--------------12-12--11----|
-|------------|---------------------------------------------------------------|
-|------------|---------------------------------------------------------------|
-|------------|---------------------------------------------------------------|

G3           G3

-|------------|----------------------------------------------------------------|
-|------------|----------------------------------------------------------------|
-|------------|----------------------------------------------------------------|
-|------------|----------------------------------------------------------------|
-|------------|--9--9--7-9-9-------10-9--7-7/9--------7-7-7-7-9-10-9-9--7-7----|
-|------------|--7--7-----------7---------------7---7--------------------------|

G4           G4

-|----------------------------------------------------------------------------|
-|----------------------------------------------------------------------------|
-|--12-12---11---9----------12-12-12--11----11---12----14vv----12---11--------|
-|----------------------------------------------------------------------------|
-|----------------------------------------------------------------------------|
-|----------------------------------------------------------------------------|
   G3

-|----------------------------------------------------------------------------|
-|----------------------------------------------------------------------------|
-|----------------------------------------------------------------------------|
-|----------------------------------------------------------------------------|
-|-7h9---10-9-9--9-9-7-9h10-9h10--9-9-9--9-9-9----------7---9--9-9-9-9-9-7-9--|
-|----------------------------------------------7-7-7-7---7-------------------|
   G4

-|----------------------------------------------------------------------------|
-|--------------------------------------------12--------12-13---15------------|
-|------11-11--11-11-11-12-14-12----12--11------------------------------------|
-|----------------------------------------------------------------------------|
-|----------------------------------------------------------------------------|
-|----------------------------------------------------------------------------|
   G3

-|----------------------------------------------------------------------------|
-|----------------------------------------------------------------------------|
-|----------------------------------------------------------------------------|
-|----------------------------------------------------------------------------|
-|-10-------------------------10-10-10-9-7-9---10-9-10-9-7--9-9-9-9-9-7-7-9---|
-|----------------------------------------------------------------------------|
   G4

-|----------------------------------------------------------------------------|
-|-----15---15----15---15----15----/17------------17----15h17----/19--19------|
-|----------------------------------------------------------------------------|
-|----------------------------------------------------------------------------|
-|----------------------------------------------------------------------------|
-|----------------------------------------------------------------------------|
   G3

-|----------------------------------------------------------------------------|
-|----------------------------------------------------------------------------|
-|----------------------------------------------------------------------------|
-|----------------------------------------------------------------------------|
-|-9-9-9-9-9---9--9/10-9---9--9h10-9-7-7h9------------------------------------|
-|----------------------------------------------------------------------------|

G4         fade out

-|----------------------------------------------------------------------------|
-|--17--15--19-19--17-15--17--19--20--19--------------------------------------|
-|----------------------------------------------------------------------------|
-|----------------------------------------------------------------------------|
-|----------------------------------------------------------------------------|
-|----------------------------------------------------------------------------|
   G3

Please rate and comment! Pretty sure it's 100% correct! Enjoy!
Comments