Pearl Jam - Army Reserve Chords & Tabs

 

Army Reserve Chords & Tabs

Pearl Jam Chords & Tabs

Version: 1 Type: Tab 0 ratings
1 star 2 stars 3 stars 4 stars 5 stars
comments

Army Reserve Tab

Intro
e|----12-12-12---10-10-10----------------------------------------------------|
B|-------------------------10-10----12---------------------------------------|
G|---------------------------------------------------------------------------|
D|---------------------------------------------------------------------------|
A|---------------------------------------------------------------------------|
E|---------------------------------------------------------------------------|
Verse
e|---------------------------------------------------------------------------|
B|--7---5---3----------------------------------------------------------------|
G|--8---6---4----------------------------------------------------------------|
D|--9---7---5-------repeat x amount of times---------------------------------|
A|--9---7---5----------------------------------------------------------------|
E|--7---5---3----------------------------------------------------------------| 
"How long must she stand..."
Chorus
e|---------------------------------------------------------------------------|
B|---------------------------------------------------------------------------|
G|---------------------------------------------------------------------------|
D|--7---9---10--12---7-------------------------------------------------------|
A|--7---9---10--12---7-------------------------------------------------------|
E|--5---7---8---9----5-------------------------------------------------------| 
"I'm not blind, I can see...."

That all i really got, not sure if its right but listen to the song for strum
counts and ya Pearl Jam rocks
[ Tab from: http://www.guitartabs.cc/tabs/p/pearl_jam/army_reserve_tab.html ]
Comments