Pearl Jam - Army Reserve Chords & Tabs

 

Pearl Jam Chords & Tabs

Version: 1 Type: Bass Tab 0 ratings
1 star 2 stars 3 stars 4 stars 5 stars
comments

Army Reserve Bass Tab

Band: Pearl Jam
Album: Pearl Jam
Song: Army Reserve
Tuning: Standard (EADG)

p - pull off
h - hammer on
/ - slide up
\ - slide down
~ - let ring

Well this is my first tab and ive only been playing bass for a couple of weeks but dont 
that throw you off, im pretty sure about it being correct. but anywho, great song, great 
of pearl jam.
enjoy!

==============================Verse=============================

G|------------------------------|------------------------------|
D|------------------------------|------------------------------|
A|-----------------7----7-------|-----------------7----5-------|
E|-7--0h7-10-10|10---5---5-55--0|-7--0h7-10-10|10---3---3-33--5|

G|-----------------------------------------------------|
D|-----------------------------------------------------|
A|-----------------7----7----------5-----------5-------|
E|-7--0h7-10-10|10---5---5-55-7-3---3-33--0-3---3-33--5|
[ Tab from: http://www.guitartabs.cc/tabs/p/pearl_jam/army_reserve_btab.html ]
G|------------------------------|------------------------------|
D|------------------------------|------------------------------|
A|-----------------7----7-------|-----------------7----5-------|
E|-7--0h7-10-10|10---5---5-55--0|-7--0h7-10-10|10---3---3-33--5|

G|--------------------------------------------------------|
D|--------------------------------------------------------|
A|-----------------7----7------------------------9--------|
E|-7--0h7-10-10|10---5---5-55--0-3---5---0h7-10---10p9h10~|

====================Chorus====================

G|--------------------------------------------|
D|--------------------------------------------|
A|-3/5--555/7--777/8--8-8-8-10--10-10-8-7-5--3|
E|--------------------------------------------|

===========================Outro===========================

G|-------------|---------------|-------------|-------------|
D|-------------|-----------12\-|-------------|----------86-|
A|-----------7-|---------------|-----------7-|------------7|
E|7--0h7-10----|7--0h7-10------|7--0h7-10----|7--0h7-10----|

=============End=============

G|-------------|-------------|
D|-------------|----------86-|
A|-----------7-|------------7|
E|7--0h7-10----|7--0h7-10----|

Order:
Verse x1
Chorus x4
Verse x1
Chorus x4
Outro x3
End x2
Comments