Pearl Jam - Amongst The Waves Chords & Tabs

 

Amongst The Waves Chords & Tabs

Pearl Jam Chords & Tabs

Version: 1 Type: Tab 0 ratings
1 star 2 stars 3 stars 4 stars 5 stars
comments

Amongst The Waves Tab

   
-------------------------------------------------------------------------------
			     Amongst the Waves – Pearl Jam
-------------------------------------------------------------------------------
Tabbed by: PS
Email:

Great new song….. all tabs relative to capo

Tuning: Capo 2nd Fret, Standard Tuning

Verses
e|----------- 0--0--0----------------------------|
B|-----------3--3--3------3--3-3-3---------------|
G|-----------2--2--2----- 2--2-2-2-----|     X 2-|
D|-----------0--0--0------0--0-0-0---------------|
A|-----------------------------------------------|
E|--------------------------1-------1------------|

e|-------------------------------------|
B|----0-0-0-0-0-0-0-0-0-0-0-0----------|
G|----2-2-2-2-2-2-2-2-2-2-2-2----------|
D|----2-2-2-2-2-2-2-2-2-2-2-2----------|
A|----0-0-0-0-0-0-0-0-0-0-0-0----------|
E|-------------------------------------|

These repeat through the verse and build up to chorus………….then
[ Tab from: http://www.guitartabs.cc/tabs/p/pearl_jam/amongst_the_waves_tab.html ]
Chorus
e|-----------------------------------------------------------|
B|-----0---0----------0----------------0---0--0---0----------|
G|-----0---0----------0---7--7--------0---6--6---6----|  X 3-|
D|-----0---0----------0---7--7--------0---7--7---7-----------|
A|---------2---------------5--5-------------7--7--7----------|
E|---------3---------------------------------5--5--5---------|

e|-------------------------------------------|
B|-----3--3--3--3----------------------------|
G|-----3--3--3--3--------3-3-3-3-------------|
D|-----3--3--3--3--------3-3-3-3-------------|
A|-----5--5--5--5--------3-3-3-3-------------|
E|-------------------------5-5-5-5-----------|

That’s basically it….
The bridge and outro parts are very easy to put together once you have the basic 
(and know that it is all with a capo on 2nd )

Have fun!
| /  slide up
| \  slide down
| h  hammer-on
| p  pull-off
| ~  vibrato
| +  harmonic
| x  Mute note
===============================================================================
Comments