Pearl Jam - Alive Chords & Tabs

 

Pearl Jam Chords & Tabs

Version: 4 Type: Bass Tab 0 ratings
1 star 2 stars 3 stars 4 stars 5 stars
comments

Alive Bass Tab

Intro

|---------|--------|
|---------|--------|      play this when u here that first bang with the drums
|---0-----|--------|
|---------|--------|

|--------------------|
|----------------7---|   x4
|---0----------------|
|--------------------|

|------------------------|
|------------------------|
|-------------3-hold-----|
|--1-1-1-1---------------|

verse 1
|-------------------|
|----------------7--|  just repeat this until you hear “sorry you
|---0----0----------|                                  didn’t see him”
|-------------------|
pre chorus
|------------------------|
|------------------------|  x2
|-------------3-hold-----|
|--1-1-1-1---------------|

CHORUS
|------------------------|
|------------------------|  x4   so this is one bar, in this bar
|--------3------5--------|      you play these notes, but you can
|--0------------------5--|      play them as much as you want, just- at the right timing

|---------------------------|
|---------------------------|
|---2-2-2-2------2-2-2-2----|
|---------------------------|


Verse 2
[ Tab from: http://www.guitartabs.cc/tabs/p/pearl_jam/alive_btab_ver_4.html ]
|-------------------|
|----------------7--|  repeat for a few bars until “you know when,
|---0----0----------|                                     now I can see”
|-------------------|

pre chorus
|------------------------|
|------------------------|  x2
|-------------3-hold-----|
|--1-1-1-1---------------|

CHORUS
|-----------------------------|
|-----------------------------|  x4
|--------3------5-------------|
|--0------------------5-------|

it’s a bit different now after the second chorus

|------------------------------------------|
|------------------------------------------|  x4
|---2-2-2-2------2-2-2-2-------------------|
|-------------------------------2-hold-----|

BRIDGE
|-----------------------------------|
|-----------------------------------|  x2
|---4----2----5-hold-----4--2---0---|
|-----------------------------------|

|-----------------------------------|
|-----------------------------------|  x2
|---6----4----7-hold-----6--4---2---|
|-----------------------------------|

Back to chorus for the rest of the song

CHORUS
|-----------------------------|
|-----------------------------|
|--------3------5-------------|
|--0------------------5-------|
Comments