Peaches - Kick It Chords & Tabs

 

Kick It Chords & Tabs

Peaches Chords & Tabs

Version: 1 Type: Tab 0 ratings
1 star 2 stars 3 stars 4 stars 5 stars
comments

Kick It Tab

------------ Peaches - Kick It ---------

TABBED BY - Meloz

E-Mail       Melozl@yahoo.it


e|-----------|---------|---------------------|
B|-----------|---------|---------------------|
G|-----------|---------|---------------------|
D|---5--5----|---8--8--|--5------------------|      X 2
A|---5--5----|---8--8--|--5------------------|
E|---3--3----|---6--6--|--3------------------|
[ Tab from: http://www.guitartabs.cc/tabs/p/peaches/kick_it_tab.html ]
e|-----------|---------|-----------|----------------|
B|-----------|---------|-----------|----------------|
G|-----------|---------|--5--5-----|---8--8---------|
D|---5--5----|---8--8--|--5--5-----|---8--8---------| 
A|---5--5----|---8--8--|--3--3-----|---6--6---------|
E|---3--3----|---6--6--|-----------|----------------|
                             
                                         FOR     6


e|-----------|----------|----------------------|
B|-----------|----------|----------------------|
G|---5 ~-----|---8 ~----|----------------------|
D|---5 ~-----|---8 ~----|----------------------|   
A|---3 ~-----|---6 ~----|----------------------|
E|-----------|----------|----------------------|



D|---5--5--|
A|---5--5--|   FAST
E|---3--3--|
                                       FOR 3
Comments