Peach - Dougal Chords & Tabs

 

Dougal Chords & Tabs

Peach Chords & Tabs

Version: 1 Type: Tab 0 ratings
1 star 2 stars 3 stars 4 stars 5 stars
comments

Dougal Tab

#----------------------------------PLEASE NOTE---------------------------------#
#This file is the author's own work and represents their interpretation of the-#
#song. You may only use this file for private study, scholarship, or research.-#
#------------------------------------------------------------------------------#

Peach - Dougal
Submitted By: Elyk Lladnar
EMail: electron_degeneracy_pressure@yahoo.com


Dropped D tuning


Intro

*distortion*

(both guitars)	       x5
e------------------------
b------------------------
g------------------------
d------------------------
a-----4-4-2-4-2-4-----4--
d-2-3-4-4-2-4-2-4-2-3-4--

*band comes in*
		       x4
e------------------------
b------------------------
g------------------------
d------------------------
a-----4-4-2-4-2-4-----4--
d-2-3-4-4-2-4-2-4-2-3-4--


(gtr. 1)               x4
e------------------------
b------------------------
g------------------------
d------------------------
a-----4-4-2-4-2-4-----4--
d-2-3-4-4-2-4-2-4-2-3-4--

(gtr. 2) *w/delay*      x2
e-------------------------
b-------------------------
g-------------------------
d-------------------------
a-2-2h4--4-4-/-6-\-2-2-1--
d-------------------------


verse

(gtr. 1)		    x8
e-----------------------------
b-----------------------------
g-----------------------------
d-----------------------------
a-2-3-44-44-2-44-2-44-2-3-44--
d-2-3-44-44-2-44-2-44-2-3-44--
 p.m. .......................


(gtr. 2) *w/delay*     x4
e-------------------------
b-------------------------
g-------------------------
d-------------------------
a-2-2h4--4-4-/-6-\-2-2-1--
d-------------------------


interlude 1

(gtr. 1) *w/delay*              x2
e----------------------------------|-----------------------------------
b----------------------------------|-----------------------------------
g----------------------------------|-----------------------------------
d----------------------------------|-----------------------------------
a----------------------------------|-14-15-16-16-14-16-14-16-14-15-16--
d-14-15-16-16-14-16-14-16-14-15-16-|-----------------------------------

e-----------------------------------------------------
b---------------------------------------------17-17~-- **
g----------------------------------14-16-16-16---16~--
d-14-15-16-16-14-16-14-16-14-15-16--------------------
a-----------------------------------------------------
d-----------------------------------------------------
 *This is the "feel" part. Bend, vibrate, and alternate between single
not picking and strumming the chord of those two notes until the rhythm
guitar quits out, then go into the verse.

(gtr. 2)               x8
e------------------------
b------------------------
g------------------------
d------------------------
a-----4-4-2-4-2-4-----4--
d-2-3-4-4-2-4-2-4-2-3-4--


verse 2

(gtr. 1)		    x8
e-----------------------------
b-----------------------------
g-----------------------------
d-----------------------------
a-2-3-44-44-2-44-2-44-2-3-44--
d-2-3-44-44-2-44-2-44-2-3-44--
 p.m. .......................


(gtr. 2) *w/delay*     x4
e-------------------------
b-------------------------
g-------------------------
d-------------------------
a-2-2h4--4-4-/-6-\-2-2-1--
d-------------------------


interlude 2
[ Tab from: http://www.guitartabs.cc/tabs/p/peach/dougal_tab.html ]
(gtr. 1) *w/delay*
                                 x2		                   x2
e----------------------------------|-----------------------------------
b----------------------------------|-----------------------------------
g----------------------------------|-----------------------------------
d----------------------------------|-----------------------------------
a----------------------------------|-14-15-16-16-14-16-14-16-14-15-16--
d-14-15-16-16-14-16-14-16-14-15-16-|-----------------------------------


e----------------------------------------------------------------------
b----------------------------------------------------------------------
g----------------------------------------------------------------------
d-14-15-16-16-14-16-14-16-14-15-16--14-15-16-16-14-16-14-16-14-15-16\\-
a----------------------------------------------------------------------
d----------------------------------------------------------------------


(gtr. 2)               x6
e------------------------
b------------------------
g------------------------
d------------------------
a-----4-4-2-4-2-4-----4--
d-2-3-4-4-2-4-2-4-2-3-4--


(both guitars)        x2
e-----------------------|--------
b-----------------------|--------
g-----------------------|--------
d-----------------------|--------
a-----4-4-2-4-2-4-----4-|-----4--
d-2-3-4-4-2-4-2-4-2-3-4-|-2-3-4--

(gtr. 1) *w/wah*
e------------------------    *Play this for four bars,
b-12~--------------------    tremolo picking, vibrating and bending.
g-11~--------------------    I could be more sure about this part.
d-9~~--------------------    If anyone has this better, let me know.
a------------------------
d------------------------

(gtr. 2)               x4
e------------------------
b------------------------
g------------------------
d------------------------
a-----9-9-7-9-7-9-----9--
d-7-8-9-9-7-9-7-9-7-8-9--


(both guitars)         x4
e------------------------
b------------------------
g------------------------
d------------------------
a-----4-4-2-4-2-4-----4--
d-2-3-4-4-2-4-2-4-2-3-4--

(gtr. 1)               x20
e------------------------
b------------------------
g------------------------
d------------------------
a-----4-4-2-4-2-4-----4--
d-2-3-4-4-2-4-2-4-2-3-4--

(gtr. 2) *w/delay, and I think a wah, full open* (hope you have good
suatain for this x.x Just pick the notes again a few times you canít
sustain, but it *does* sound like just one note on some on the record.)
e-----------------------------------------------------------------
b-----------------------------------------------------------------
g-----------------------------------------------------------------
d-----------------------------------------------------------------
a---------------------------------------------------13---14---16--
d-8--8--6-8-9--9--8-9-11--11--11-11-13--13--13-13-13--------------

e------------------------------------18---19---21----- * hold, let fade
b--------------------------19---21--------------------
g----------------18---20------------------------------
d-13---16---18----------------------------------------
a-----------------------------------------------------
d-----------------------------------------------------


(both guitars)         x3
e------------------------
b------------------------
g------------------------
d------------------------
a-----4-4-2-4-2-4-----4--
d-2-3-4-4-2-4-2-4-2-3-4--

(gtr. 1)               x5
e------------------------
b------------------------
g------------------------
d------------------------
a-----4-4-2-4-2-4-----4--
d-2-3-4-4-2-4-2-4-2-3-4--

*small rest*

(gtr. 1)               x3
e------------------------
b------------------------
g------------------------
d------------------------
a-----4-4-2-4-2-4-----4--
d-2-3-4-4-2-4-2-4-2-3-4--

(both guitars)
e------------------------
b------------------------
g------------------------
d------------------------
a-----4-4-2-4-2-4-----4--
d-2-3-4-4-2-4-2-4-2-3-4--
Comments