Peach - Dont Make Me Your God Chords & Tabs

 

Dont Make Me Your God Chords & Tabs

Peach Chords & Tabs

Version: 1 Type: Bass Tab 0 ratings
1 star 2 stars 3 stars 4 stars 5 stars
comments

Dont Make Me Your God Bass Tab

   
#----------------------------------PLEASE NOTE---------------------------------#
#This file is the author's own work and represents their interpretation of the-#
#song. You may only use this file for private study, scholarship, or research.-#
#------------------------------------------------------------------------------#

Peach - Don't Make Me Your God
Submitted By: Elyk
EMail: entropy_law2@yahoo.com


g-------------------------------------------------
d------------------------------------------------- 4x
a-------5h7---------5h7---------5h7---------2p0---
e-0---0-----0-0---0-----0-0---0-----0-0---0-----3-

g-------------------------------------------------
d-------------------------------------------------
a-3---3-3---3-3-----2p0---------5h7---------2p0---
e-----------------------3-0---0-----0-0---0-----3-

g-------------------------------------------------
d-------------------------------------------------
a-3---3-3---3-3---3-3---3-2---2-2---2-0---0-0---0-
e-------------------------------------------------

g-------------------------------------------------
d-------------------------------------------------
a-5---5-4---4-5---5-6---6-7-----7-----7-----7-----
e---------------------------0-0---0-0---0-0---0-0-

g-------------------------------------------------
d-------------------------------------------------
a-5-5-5-4-4-4-5-5-5-6-6-6-7-----7-----7-----7-----
e---------------------------0-0---0-0---0-0---0-0-

g-------------------------------------------------
d-------------------------------------------------
a-5-5-5-4-4-4-5-5-5-6-6-6-3---3-3---3-2---2-2---2-
e-------------------------------------------------

rest 1 measure

g-------------------------------------------------
d------------------------------------------------- 2x
a-------5h7---------2h3---------5h7---------2p0---
e-0---0-----0-0---0-----0-0---0-----0-0---0-----3-

g-------------------------------------------------
d------------------------------------------------- 2x
a-------5h7---------5h7---------5h7---------2p0---
e-0---0-----0-0---0-----0-0---0-----0-0---0-----3-

g-------------------------------------------------
d-------------------------------------------------
a-3---3-3---3-3-----2p0---------5h7---------2p0---
e-----------------------3-0---0-----0-0---0-----3-

g-------------------------------------------------
d-------------------------------------------------
a-3---3-3---3-3---3-3---3-2---2-2---2-0---0-0---0-
e-------------------------------------------------

g-------------------------------------------------
d------------------------------------------------- 2x
a-5-5-5-4-4-4-5-5-5-6-6-6-7-----7-----7-----7-----
e---------------------------0-0---0-0---0-0---0-0-
[ Tab from: http://www.guitartabs.cc/tabs/p/peach/dont_make_me_your_god_btab.html ]
g-------------------------------------------------
d-------------------------------------------------
a-5-5-5-4-4-4-5-5-5-6-6-6-3---3-3---3-2---2-2---2-
e-------------------------------------------------

rest for two measures, then continue

g-------------------------------------------------
d------------------------------------------------- 3x
a-5h7-----------2---3---3-5h7-----------2---3---3-
e-------0---------0-------------0---------0-------

g-------------------------------------------------
d-------------------------0h2-2-3-3-3-4-4-4-5-5-5-
a-5h7-----------2---3---3-------------------------
e-------0---------0-------------------------------

g-----------------------------------------------------
d-----------------------------------------------------
a-------5h7---------2h3-------------5h7---------2p0---
e-0---0-----0-0---0-----0-0---0---0-----0-0---0-----3-

g-------------------------------------------------
d-------------------------------------------------
a-------5h7---------2h3---------5h7---------2p0---
e-0---0-----0-0---0-----0-0---0-----0-0---0-----3-

g-------------------------------------------------
d------------------------------------------------- 2x
a-------5h7---------5h7---------5h7---------2p0---
e-0---0-----0-0---0-----0-0---0-----0-0---0-----3-

g-------------------------------------------------
d-------------------------------------------------
a-3---3-3---3-3-----2p0---------5h7---------2p0---
e-----------------------3-0---0-----0-0---0-----3-

g-------------------------------------------------
d-------------------------------------------------
a-3---3-3---3-3---3-3---3-2---2-2---2-0---0-0---0-
e-------------------------------------------------

g-------------------------------------------------
d------------------------------------------------- 2x
a-5-5-5-4-4-4-5-5-5-6-6-6-7-----7-----7-----7-----
e---------------------------0-0---0-0---0-0---0-0-

g-------------------------------------------------
d-------------------------------------------------
a-5-5-5-4-4-4-5-5-5-6-6-6-7\----------------------
e-------------------------0-0-0-1-1-1-2-2-2-1-1-1-

g-------------------------------------------------
d-------------------------------------------------
a-------------------------------------------------
e-0-0-0-1-1-1-2-2-2-1-1-1-0-0-0-1-1-1-2-2-2-1-1-1-

g-------------------------------------------------
d-------------------------------------------------
a-------------------------------------------------
e-0-0-0-1-1-1-2-2-2-1-1-1-------------------------

g-------------------------------------------------
d-------------------------------------------------
a-------------------------------------------------
e-0-----------------------------------------------
Comments