Pbiab - Judgement Day Chords & Tabs

 

Judgement Day Chords & Tabs

Pbiab Chords & Tabs

Version: 1 Type: Tab 0 ratings
1 star 2 stars 3 stars 4 stars 5 stars
comments

Judgement Day Tab

   
Artist: Portible Bitch in a Box
Song: Judgement Day
Album: N/A
(): Palm muted

intro
E|--------------------------------------------------------------------------------|
B|--------------------------------------------------------------------------------|
G|--------------------------------------------------------------------------------|
D|--------------------------------------------------------------------------------|
A|----------(-4-)-------(-5-)-------(-4-)-------(-5-)-------(-4-)-------(-5-)-----|
E|---(-5-5-)-----(-5-5-)-----(-5-5-)-----(-5-5-)-----(-5-5-)-----(-5-5-)----------|

E|----------------------|
B|----------------------|
G|----------------------|
D|----------------------|
A|----------------------|
E|---(-5-5-7--5-5-7-)---|

verse
E|--------------------------------------------------------------------------------|
B|--------------------------------------------------------------------------------|
G|--------------------------------------------------------------------------------|
D|--------------------(6-6-6-7-7-7--9-9-9-9-9-9-9-9-9-9-9-9-9-9-9-9)--------------|
A|---(7-7-7-7-7-7-7-7--4-4-4-5-5-5--7-7-7-7-7-7-7-7-7-7-7-7-7-7-7-7)--------------|
E|---(5-5-5-5-5-5-5-5-------------------------------------------------------------|

E|--------------------------------------------------------------------------------|
B|--------------------------------------------------------------------------------|
G|--------------------------------------------------------------------------------|
D|-------------------(6-6-6-7-7-7)-------------------------------------------------|
A|---(7-7-7-7-7-7-7-7--4-4-4-5-5-5--9-9-9-9-9-9-9-9-9-9-9-9-9-9-9-9)----------------|
E|---(5-5-5-5-5-5-5-5)-------------(7-7-7-7-7-7-7-7-7-7-7-7-7-7-7-7)----------------|
[ Tab from: http://www.guitartabs.cc/tabs/p/pbiab/judgement_day_tab.html ]
Chours
E|--------------------------------------------------------------------------------|
B|--------------------------------------------------------------------------------|
G|--------------------------------------------------------------------------------|
D|--------------------------------------------------------------------------------|
A| --9-(-9-9-)-9-(-9-9-)-9-(-9-9-)-9-11-7-(-7-7-)-7-(-7-7-)-7-(-7-7-)-7-9---------|
E|---7-(-7-7-)-7-(-7-7-)-7-(-7-7-)-7-9--5-(-5-5-)-5-(-5-5-)-5-(-5-5-)-5-7---------|

E|--------------------------------------------------------------------------------|
B|--------------------------------------------------------------------------------|
G|--------------------------------------------------------------------------------|
D|--------------------------------------------------------------------------------|
A|-5-(-5-5-)-5-(-5-5-)-5-(-5-5-)-5-5--7-(-7-7-)-7-(-7-7-)-7-(-7-7-)-7-7-----------|
E|-3-(-3-3-)-3-(-3-3-)-3-(-3-3-)-3-3--5-(-5-5-)-5-(-5-5-)-5-(-5-5-)-5-5-----------|

Breakdown
E|--------------------------------------------------------------------------------|
B|--------------------------------------------------------------------------------|
G|--------------------------------------------------------------------------------|
D|--------------------------------------------------------------------------------|
A|------------(4)-------(5)-----------(4)-------(5)-------------(4)-------(5)-----|
E|---(5-5-5-5)---(5-5-5)---(5-5-5-5-5)---(5-5-5)---(5-7-5-5-5-5)---(5-5-5)--------|

E|--------------------------------------------------------------------------------|
B|--------------------------------------------------------------------------------|
G|--------------------------------------------------------------------------------|
D|--------------------------------------------------------------------------------|
A|--------------(4)-------(5)-----------------------------------------------------|
E|---(5-5-5-5-5)---(5-5-5)---(5-5-5-7-5)------------------------------------------|

Order of song
Intro
Intro
Verse
Verse
Chours
Intro
Intro
Verse
Verse
Chours
Breakdown
Breakdown
Chours
Chours
Comments